Muerte por amor
Forseps
Acordes

Subida por Abelardo


Más Versiones
Ver. 2 Ver. 3

Cambiar Cifrado
Americano Latino

Cambiar Tonalidad
-1 +1

Partir Pantalla Imprimir FAQ

+A
-A


Ver solo la LETRA
INTRO VIOLINES
ACORDES DE ACOMPAÑAMIENTO
Em/Eb - C - D X2

VIOLINES Y CELLO (ADAPTADO MÁS O MENOS A GUITARRA :P)

Em Em Eb Eb E C D
e|-------------------------12-15-12--12---------14-17-14--14--|
B|-----------------------13--------13---------15--------15----|
G|-9-9-8-8--9----------12-------------------14----------------|
D|-9-9-8-8--9-------------------------------------------------|
A|-7-7-6-6--7-------------------------------------------------|
E|------------------------------------------------------------|

VIOLINES
C D
e|-----12-15-12--12---------14-17-14--14--|
B|---13--------13---------15--------15----|
G|-12-------------------14----------------| RIFF 1
D|----------------------------------------|
A|----------------------------------------|
E|----------------------------------------|


CELLO
e|--------------|
B|-------7-8----|
G|--9-8-9-------| RIFF 2
D|-9------------|
A|--------------|
E|--------------|

CELLO
e|---------7--------------|
B|-------7--10-8-7--8-7---|
G|--9-8-9---------7----10-| RIFF 3
D|-9----------------------|
A|------------------------|
E|------------------------|

VIOLÍN
e|-----------14-15-14-15-14----|
B|---17-16-17--------------17--|
G|-16--------------------------| RIFF 4
D|-----------------------------|
A|-----------------------------|
E|-----------------------------|




Em A C Em (RIFF 2 & RIFF 1)
Vestida de novia fue encontrada
Em A C Em (RIFF 3 & RIFF 1)
con rojo sobre blanco ella escribió
Em A C Em (RIFF 4 & RIFF 1)
el nombre de su amado que esperaba
Em Bm C Em (RIFF 3)
aquel guerrero que jamas volvió

F Em F Em Em/F
abrieron su pecho encontraron marchito el corazón
F Em D A Em/C
así que dictaminaron que fue una muerte por amor

INTERMEDIO

Em/Eb - C - D X2 RIFF 1

Em A C Em
cuenta que su amor era perfecto
Em A C Em
que el gran defecto era tanto amor
Em A C Em
que pasaban días en silencio
Em D A Em
empapados en sudor

CORO

F Em F Em Em/F
abrieron su pecho encontraron marchito el corazón
F Em D A Em/C
así que dictaminaron que fue una muerte por amor

SOLO DE GUITARRA
Em Em-Eb-Em - C/D X6

F Em
que se le hundió el pecho
F Em
cuando la guerrilla le informo
F Em D A C
a muerto por su gente una muerte con valor

CORO

F Em F Em Em/F
abrieron su pecho encontraron marchito el corazón
F Em D A Em/C
así que dictaminaron que fue una muerte por amor


CUALQUIER DUDA Y/O SUGERENCIA PUEDEN ESCRIBIRME A: [email protected]
O DEJARME UN MENSAJE


ACORDES PARA GUITARRA

PIANO UKELELE
Em/Eb
C
D
Em
Eb
E
A
Bm
F
Em/F
Em/C
C/D


COMENTARIOS

Aún no hay comentarios,

¡escribe el primero!

Escribe una pregunta, duda o comentario sobre esta canción, te responderemos a la brevedad.

Las más tocadas de Forseps

Toca una Canción al Azar de Forseps
Em/Eb
C
D
Em
Eb
E
A
Bm
F
Em/F
Em/C
C/D