Día negro
Forseps
Acordes

Subida por inesmorales


Más Versiones
Ver. 2 Ver. 3

Cambiar Cifrado
Americano Latino

Cambiar Tonalidad
-1 +1

Partir Pantalla Imprimir FAQ

+A
-A


Ver solo la LETRA
Estos son los adorno que lleva

riff 1
e|---------------------------------
B|---------------------------------
G|---------------------------------
D|---------------------------------
A|--------3--4--3------------------
E|--3--6-----------6---3-----------

riff 2
e|---------------------------------
B|---------------------------------
G|---------------------------------
D|---------------------------------
A|--5--4--3--2--1--0---------------
E|--------------------2-3----------

riff 3
e|---------------------------------
B|---------------------------------
G|---------------------------------
D|---------------------------------
A|---------------------------------
E|--3--2--1--0---------------------


Gm
Hoy es un dia común
D# (riff 1) Gm
hoy es un día negro

la realidad otra vez
D# (riff 1) D
muestra su rostro siniestro

Al abrir la puerta
Cm A#
un aire violento

me dice sin piedad
A (riff 2)
que no estas ahí


Gm
Alguien se roba tu luz
D# (riff 1) Gm
alguien se roba tu perro

Alguien se roba tambien
D# (riff 1) D
lo que estas escribiendo

Alguien se roba tu nombre,
Cm A#
tu paz y tu tiempo

y solo salvaras
A (riff 2)
tu propia visión



Gm Cm D
Día negro
Gm Cm D
hoy es un día negro
Gm Cm D
día negro
Gm (riff 3) E
hoy es un día así



Gm
Un tiburón son poder
D# (riff 1) Gm
y un gatillero sin riesgos

alguien dispuesto a morder
D# (riff 1) D
por no perder su empleo

Todos tomando de un vino
Cm A#
que no produjeron

y sin pisar jamas
A (riff 2)
la línea de fuego


ACORDES PARA GUITARRA

PIANO UKELELE
Gm
D#
D
Cm
A#
A
E


COMENTARIOS

Aún no hay comentarios,

¡escribe el primero!

Escribe una pregunta, duda o comentario sobre esta canción, te responderemos a la brevedad.

Las más tocadas de Forseps

Toca una Canción al Azar de Forseps
Gm
D#
D
Cm
A#
A
E