En el espejo (Acordes)

Forseps

Subida por Coronayulissa14

Compartir


Imprimir FAQ
+A
-A

Texto

Desplazamiento

Transportador

Color de Fondo

Archivos

-A
+A
Afinacion medio tono abajo

Intro

Descubri a un ser enfermo...
D#||---------------------------|---------------------||-----|
A#||---------------------------|---------------------||-----|
F#||*--------3---------------3-|--------------------*||-----|
C#||*-------------2------------|--------------------*||-----|
G#||---------------------------|---------------------||-----|
D#||---1--1----------------1---|--0-0-0-0--0-0-0-0---||-----|

Coro

Me he traicionado...
|---------------------------||
|---------------------------||
|*-------------------------*||
|*-------------------------*|| 3 veces
|---6----4----3----3-4-6----||
|---4----2----1----1-2-4----||

Se repite

|---------------------------|---------------------||
|---------------------------|---------------------||
|*--------3---------------3-|--------------------*||
|*-------------2------------|--------------------*||
|---------------------------|---------------------||
|---1--1----------------1---|--0-0-0-0--0-0-0-0---||

Me he traicionado...
|---------------------------||
|---------------------------||
|*-------------------------*||
|*-------------------------*|| 3 veces
|---6----4----3----3-4-6----||
|---4----2----1----1-2-4----||

Dudas comentarios
[email protected]


Video Clip de En el espejo


ACORDES PARA GUITARRA

PIANO UKELELE


TOP 20: Las más tocadas de Forseps


Toca una Canción al Azar de Forseps

Acordes

Cerrar

18.47

x

61