c ▷ SERÁ POR ESO: (Forseps) Acordes para Guitarra, Piano & Ukelele

Será por eso (Acordes)

Forseps

Subida por puerperina

Compartir


Imprimir FAQ
+A
-A

Texto

Desplazamiento

Transportador

Color de Fondo

Archivos

-A
+A
intro
E||------------------|--------------------|
B||------------------|--------------------|
G||------------------|--------------------|
D||-------2-3-2--0-2-|-------2-3-2--0-2---|
A||------------------|------------------2-|
E||--0---------------|--0-----------------|

desde aquel dia....
-------------------|-------------------|
-------------------|-------------------|
-------------------|-------------------|
-------------------|-------------------|
--2----------------|--2----------------|
--0----------------|--0----------------|

ya no me hablan ni siquiera....
--------------------|--------------------||
--------------------|--------------------||
--------------------|--------------------||
-----------8--------|--6--------5--------||
--2--------6--------|--4--------3--------||
--0-----------------|--------------------||

Por eso....          3x   salgo a clavar..

|----------------------||-----------|
|----------------------||-----------|
|*--------------------*||-----------|
|*--------------------*||-------5---|
|---4------------x-----||-------3---|
|---2------------x-----||-----------|


sera por eso que no me dejan salir......

--------------------|--------------------||
--------------------|--------------------||
--------------------|--------------------||
-----------6--------|--------------------||
--7--------4--------|--5--------4--------||
--5-----------------|--3--------2--------||

escuchen la rola para que se guien
comentarios, sugerencias,
qbo_13@hotmail.com


Video Clip de Será por eso


ACORDES PARA GUITARRA

PIANO UKELELE


TOP 20: Las más tocadas de Forseps


Toca una Canción al Azar de Forseps

Acordes

Cerrar

17.44

x

43