10 Anos

Gusttavo Lima

Acordes

Subida por manitas


Más Versiones
Ver. 2 Ver. 3 Ver. 4 Ver. 5 Ver. 6

Cambiar Cifrado
Americano Latino

Cambiar Tonalidad
-1 +1

Partir Pantalla Imprimir FAQ

+A
-A
Mudar para Português

Ver solo la LETRA
[Intro] Bm  G9  Em  A9
Bm G9 Em A9

E|---7-9-10-9-7-5------2-3-5-3-2------------|
B|-7---------------3-5-----------5----------|
G|------------------------------------------|
D|------------------------------------------|
A|------------------------------------------|
E|------------------------------------------|

E|------------------------------------------|
B|-----2-3-2--------------------------------|
G|---4-------4-2--------0-2-0---------------|
D|-4--------------0-2-4-------4-2-----------|
A|--------------------------------5---------|
E|------------------------------------------|

[Primeira Parte]

D9
Fala
D7M(9) D9 F#m
Seria covardia ir embora sem dizer por quê
Bm7
Existem tantas páginas dessa história pra escrever
G9
Não venha inventar um fim

D9
Fala
D7M(9) D9 F#m
Depois de tanto tempo juntos você vai deixar no ar
Bm7
Será que pensa que agindo assim o amor irá mudar?
G9
A tanto ainda pra viver tudo é nada sem você

[Refrão]

D9
Nosso amor não acabou e ainda digo mais
Vou te fazer lembrar de tudo que me prometeu
F#m
Há 10 anos atrás amor e muito mais
Bm
Tô pagando pra ver
G9 D A9
Se você é capaz de me esquecer

D9
Nosso amor não acabou e ainda digo mais
Vou te fazer lembrar de tudo que me prometeu
F#m7
Há 10 anos atrás amor e muito mais
Bm
Tô pagando pra ver
G9 D A9
Se você é capaz de me esquecer

[Solo] Bm G9 Em A9
Bm G9 Em A9

E|---7-9-10-9-7-5------2-3-5-3-2------------|
B|-7---------------3-5-----------5----------|
G|------------------------------------------|
D|------------------------------------------|
A|------------------------------------------|
E|------------------------------------------|

E|---7-9-10-9-7-----------------------------|
B|-7------------10-----7-8-10-8-7-----------|
G|-----------------7-9------------9--9p67--|
D|------------------------------------------|
A|------------------------------------------|
E|------------------------------------------|

[Primeira Parte]

D9
Fala
D7M(9) D9 F#m
Seria covardia ir embora sem dizer por quê
Bm7
Existem tantas páginas dessa história pra escrever
G9
Não venha inventar um fim

D9
Fala
D7M(9) D9 F#m
Depois de tanto tempo juntos você vai deixar no ar
Bm7
Será que pensa que agindo assim o amor irá mudar?
G9
A tanto ainda pra viver tudo é nada sem você

[Refrão]

D9
Nosso amor não acabou e ainda digo mais
Vou te fazer lembrar de tudo que me prometeu
F#m
Há 10 anos atrás amor e muito mais
Bm
Tô pagando pra ver
G9 D A9
Se você é capaz de me esquecer

D9
Nosso amor não acabou e ainda digo mais
Vou te fazer lembrar de tudo que me prometeu
F#m
Há 10 anos atrás amor e muito mais
Bm
Tô pagando pra ver
G9 D A9
Se você é capaz de me esquecer

[Final] Bm G9 Em A9

E|---7-9-10-9-7-----------------------------|
B|-7------------10-----7-8-10-8-7-----------|
G|-----------------7-9------------9--9p67--|
D|------------------------------------------|
A|------------------------------------------|
E|------------------------------------------|

D
De me esquecer

NUEVO FORO DE MÚSICA

¿Tienes alguna duda, consulta, pregunta, consejo o algo para compartir sobre esta canción?

¡Puedes abrir un hilo en el FORO para que la comunidad te ayude! Hacer una pregunta

ACORDES PARA GUITARRA

PIANO UKELELE
Bm
G9
Em
A9
D9
Dmaj9
F#m
Bm7
D
F#m7


Las más tocadas de Gusttavo Lima

Bm
G9
Em
A9
D9
Dmaj9
F#m
Bm7
D
F#m7