Inventor Dos Amores
Gusttavo Lima
Acordes

Subida por Silva88



Otras Versiones

Cambiar Cifrado
Americano Latino

Cambiar Tonalidad
-1 +1

Partir Pantalla Imprimir FAQ

+A
-A
Mudar para Português
LETRA CON ACORDES
Intro: Gm  Bb F  C5(9)

Parte 1:
E|------5-6-------5-6----------8-10------------------|
B|-8-8-------8-8----- -11-11-------------------------|
G|---------------------------------------------------|
D|---------------------------------------------------|
A|---------------------------------------------------|
E|---------------------------------------------------|

Parte 2:
E|----------10-10-8--6-6/8---6/8--8--8--6-5-----8----|
B|-10-10/11-11-11-10-8-8/10--8/10-10-10-8-6----------|
G|------------------------------------------7/9------|
D|---------------------------------------------------|
A|---------------------------------------------------|
E|---------------------------------------------------|

Parte 3:
E|-----6p5-------------------------------------------|
B|---------8-6-6/8~----------------------------------|
G|-5/7-----------------------------------------------|
D|---------------------------------------------------|
A|---------------------------------------------------|
E|---------------------------------------------------|

Gm
Eu já não sei mais o que faço com meu coração
Bb
Eu não tenho mais o controle da situação
F C5(9)
Todo caminho que eu sigo me leva a você...

Gm
E quanto mais tento fugir eu me aproximo mais
Bb
Não tem mais jeito já se foi razão ficou pra trás
F C5(9)
Eu já não sigo meus instintos medo de sofrer...

Gm Bb
E se eu me entregar será que vai rolar?
F C5(9)
Sou um doente apaixonado e ela tem razão...ão
Gm Bb
Se for pra ser assim eu vou cuidar de mim
C5(9)
Eu penso em desistir e ela diz que não..

Refrão:
F
Meu coração apaixonado atormentado em dores
C5(9) Bb5(9) F
Procura entre os outros o inventor dos amores
Gm Dm C5(9) Bb5(9) C5(9)
Espero que essa paixão nunca me deixe mal
F
Eu quero te amar e também quero ser amado
C5(9) Bb5(9) F
Desejo ser o seu amor e não o seu escravo
Gm Dm C5(9)
Espero que essa paixão não tenha ponto final
Bb5(9) C5(9) F
Se não Adeus tchau tchau.

(Intro)
(Jorge e Mateus)
(Segunda Parte)

Gm Bb
E se eu me entregar será que vai rolar?
F C5(9)
Sou um doente apaixonado e ela tem razão...ão
Gm Bb
Se for pra ser assim eu vou cuidar de mim
C5(9)
Eu penso em desistir e ela diz que não..

(Refrão)

Final: F Bb5(9) C5(9) F

ACORDES PARA GUITARRA

PIANO UKELELE
Gm
Bb
F
Cadd9
Bbadd9
Dm



COMENTARIOS

Aún no hay comentarios,

¡escribe el primero!

Escribe un comentario o pregunta sobre esta canción


TOP 20: Las más tocadas de Gusttavo Lima

Ver más

Toca una Canción al Azar de Gusttavo Lima
Gm
Bb
F
Cadd9
Bbadd9
Dm

Nuestro servidor se demoró 0.03 segundos en generar esta página. Eso fue realmente muy rápido!