Cor de Ouro
Gusttavo Lima
Acordes

Subida por Kndpazos



Otras Versiones

Cambiar Cifrado
Americano Latino

Cambiar Tonalidad
-1 +1

Partir Pantalla Imprimir FAQ

+A
-A
Mudar para Português
LETRA CON ACORDES
Intro 2x: B5(9)  F#  G#m  E
Violão 1:
E|-------11---------9------------------------11---7--|
B|----12---------11---12-11h12p11---------12------9--|
G|-11---------11------------------11---11---------9--|
D|---------------------------------------------------|
A|---------------------------------------------------|
E|---------------------------------------------------|

Violão 2:
E|---------------------------------------------------|
B|---------------------------------------------------|
G|--8-8-8-8-8-8-8-8--6-6-6-6-6-6-6-6-----------------|
D|--9-9-9-9-9-9-9-9--8-8-8-8-8-8-8-8-----------------|
A|---------------------------------------------------|
E|---------------------------------------------------|

E|---------------------------------------------------|
B|---------------------------------------------------|
G|--8-8-8-8-8-8-8-8--9-9-9-9-9-9-9-9-----------------|
D|--9-9-9-9-9-9-9-9--9-9-9-9-9-9-9-9-----------------|
A|---------------------------------------------------|
E|---------------------------------------------------|

Primeira parte:
B5(9) F#
Nunca pensei que um dia fosse ser assim
G#m E
Você chegou sem dizer nada tomou conta de mim
B5(9) F#
Antes de você chegar só tinha solidão
G#m E (frase pré-refrão)
Somente marcas e feridas no meu coração
Frase pré-refrão - violão 2:
E|--3/4----------------------------------------------|
B|------7-5-4----------------------------------------|
G|------------6-4---6--------------------------------|
D|----------------6----------------------------------|
A|---------------------------------------------------|
E|---------------------------------------------------|

Pré-refrão:
C#m E B5(9)
Amor você é tudo que eu preciso
C#m E F#
Com você eu to no céu eu tô no paraíso
Violão 2:
E|-11--9--7------------------------------------------|
B|-----------9-9p7------------9h10p9-----------------|
G|-11--9--8---------9-8------9--------9--------------|
D|----------------------9-11-------------------------|
A|---------------------------------------------------|
E|---------------------------------------------------|

Refrão 2x:
B5(9) F#
Esse cabelo cor de ouro é que me deixa louco
C#m E
Esse sorriso nos seus lábios que eu me entrego todo
B5(9) F#
Não sei mais ver minha vida sem você por perto
C#m E F#
Amor sem você comigo a vida é um deserto

Solo 2x: B5(9) F# C#m E
Solo - violão 2:
E|---------------------------------------------------|
B|--------------------9-11-11/12---------------------|
G|-8-8-8-8-8-9-11-11-------------9-8-9-8------8-----|
D|----------------------------------------9-11-------|
A|---------------------------------------------------|
E|---------------------------------------------------|

E|---------------------------------------------------|
B|--------------------9-11-11/12---------------------|
G|-8-8-8--8-9-11-11--------------9-8-9-8------------|
D|----------------------------------------9-9/11-----|
A|---------------------------------------------------|
E|---------------------------------------------------|

Primeira parte:
B5(9) F#
Nunca pensei que um dia fosse ser assim
G#m E
Você chegou sem dizer nada tomou conta de mim
B5(9) F#
Antes de você chegar só tinha solidão
G#m E (frase pré-refrão)
Somente marcas e feridas no meu coração
Frase pré-refrão - violão 2:
E|--3/4----------------------------------------------|
B|------7-5-4----------------------------------------|
G|------------6-4---6--------------------------------|
D|----------------6----------------------------------|
A|---------------------------------------------------|
E|---------------------------------------------------|

Pré-refrão:
C#m E B5(9)
Amor você é tudo que eu preciso
C#m E F#
Com você eu to no céu eu tô no paraíso
Violão 2:
E|-11--9--7------------------------------------------|
B|------------9-9p7------------9h10p9----------------|
G|-11--9--8---------9-8------9--------9--------------|
D|----------------------9-11-------------------------|
A|---------------------------------------------------|
E|---------------------------------------------------|

Refrão:
B5(9) F#
Esse cabelo cor de ouro é que me deixa louco
C#m E
Esse sorriso nos seus lábios que eu me entrego todo
B5(9) F#
Não sei mais ver minha vida sem você por perto
C#m E F#
Amor sem você comigo a vida é um deserto

B5(9) F#
Esse cabelo cor de ouro é que me deixa louco
C#m E
Esse sorriso nos seus lábios que eu me entrego todo
B5(9) F#
Não sei mais ver minha vida sem você por perto
C#m E F#
Amor sem você comigo a vida é um deserto

B5(9) F#
Esse cabelo cor de ouro é que me deixa louco
C#m E
Esse sorriso nos seus lábios que eu me entrego todo
B5(9) F#
Não sei mais ver minha vida sem você por perto
C#m E F# B5(9)
Amor sem você comigo a vida é um deserto

ACORDES PARA GUITARRA

PIANO UKELELE
B9
F#
G#m
E
C#m



COMENTARIOS

Aún no hay comentarios,

¡escribe el primero!

Escribe un comentario o pregunta sobre esta canción


TOP 20: Las más tocadas de Gusttavo Lima

Ver más

Toca una Canción al Azar de Gusttavo Lima
B9
F#
G#m
E
C#m

Nuestro servidor se demoró 0.02 segundos en generar esta página. Eso fue realmente muy rápido!