Fui Fiel

Gusttavo Lima

Acordes

Do outro lado da moeda (2014)
Subida por JESUS


Más Versiones
Ver. 2

Cambiar Cifrado
Americano Latino

Cambiar Tonalidad
-1 +1

Partir Pantalla Imprimir FAQ

+A
-A
Mudar para Português

Ver solo la LETRA
Intro:  

E|------7--------------------------------5/7-----7-----------------|
B|--7/6---7-9-7------7-9-7------10-9-10------7/9---7-9-7-----7-9-7-|
G|--------------9-6--------9-6---------------------------9-6-------|
D|-----------------------------------------------------------------|
A|-----------------------------------------------------------------|
E|-----------------------------------------------------------------|

E|-----------|
B|-----------|
G|--9-6-6/9--|
D|-----------|
A|-----------|
E|-----------|


Primeira Parte:

E B
Foi bonito, foi, foi intenso
F#m A
Foi verdadeiro, mais sincero
E B F#m
Sei que fui capaz, fiz até demais
A
Te quis do teu jeito

E B F#m
Te amei, te mostrei que o meu amor
A
Foi o mais profundo
E B F#m
Me doei, me entreguei, fui fiel
A
Chorei, chorei

Refrão 2x:

E B
Hoje eu acordei, me veio a falta de você
F#m A
Saudade de você, saudade de você
E B
Lembrei que me acordava de manhã só pra dizer
F#m A
Bom dia, meu bebê, te amo, meu bebê

(repete tudo)

NUEVO FORO DE MÚSICA

¿Tienes alguna duda, consulta, pregunta, consejo o algo para compartir sobre esta canción?

¡Puedes abrir un hilo en el FORO para que la comunidad te ayude! Hacer una pregunta

ACORDES PARA GUITARRA

PIANO UKELELE
E
B
F#m
A


Las más tocadas de Gusttavo Lima

E
B
F#m
A