Bebendo Mais, Amando Menos
Gusttavo Lima
Acordes

Subida por salasd



Otras Versiones

Cambiar Cifrado
Americano Latino

Cambiar Tonalidad
-1 +1

Partir Pantalla Imprimir FAQ

+A
-A
Mudar para Português
LETRA CON ACORDES
      

Intro: C G

E|--------------------------------------8----------|
B|----8/6-6p5--6p5h6p5------5----------------------|
G|--5------------------7-5-7-----------------------|
D|---------------------------5---5-4---------------|
A|-----------------------------------7-5-----------|
E|-------------------------------------------------|



C
Tô dando um tempo
G
Tô dando um tempo no meu relacionamento
Dm
Eu já não quero mais saber de sofrimento
F
Hoje eu quero só beber pra esquecer


C
Tô dando um tempo
G
Tô precisando disfarçar os pensamentos, ficar de longe
Dm
Porque perto eu não aguento
F
Hoje eu quero só beber pra esquecer

Dm Am
Eu dei valor demais a quem não merecia
F
Acreditei no amor só que não existia
G
Na mesa desse bar eu vou enlouquecer


C G
Se o amor nos enfraquece a bebida cura
Dm
Não vou voltar pra casa vou dormir na rua
F
Enquanto ela não volta assim eu vou vivendo
G C
Bebendo mais amando menos


C G Dm
E|------------------------------------------------------------------|
B|----8/6-6p5--6p5h6p5------5-5----8/6-6p5--6p5h6p5-------6-6/10----|
G|--5------------------7-5-7-----5------------------7-5-7-----------|
D|------------------------------------------------------------------|
A|------------------------------------------------------------------|
E|------------------------------------------------------------------|


F F Em Dm

E|--13-13-13-12-10--------13-13-13-12-10-8-10/12-8---8/13-13--13-12--10-8--10-10--|
B|----------------13-10-----------------------------------------------------------|
G|---------------------------------------------------9/14---14---12--10-9--10-10--|
D|--------------------------------------------------------------------------------|
A|--------------------------------------------------------------------------------|
E|--------------------------------------------------------------------------------|

ACORDES PARA GUITARRA

PIANO UKELELE
C
G
Dm
F
Am
Em



COMENTARIOS

Aún no hay comentarios,

¡escribe el primero!

Escribe un comentario o pregunta sobre esta canción


TOP 20: Las más tocadas de Gusttavo Lima

Ver más

Toca una Canción al Azar de Gusttavo Lima
C
G
Dm
F
Am
Em

Nuestro servidor se demoró 0.02 segundos en generar esta página. Eso fue realmente muy rápido!