Menina
Gusttavo Lima
Acordes

Subida por Hernando



Otras Versiones

Cambiar Cifrado
Americano Latino

Cambiar Tonalidad
-1 +1

Partir Pantalla Imprimir FAQ

+A
-A
Mudar para Português
LETRA CON ACORDES
    G                  D4/F#            Em7         C9
E|---3------------------3-----------------3----------3-x--3/5--|
B|---3---3--------------3---3-------------3---3------3-x--3/5--|
G|---0---0--------------2---2-------------0---0------0-x-------|
D|--------------0h2----------------0-------------------x-------|
A|----------0h2----------------0h2-----------------3---x--3/5--|
E|-3---3--------------2---2-------------0---0------------------|

G D4/F# Em7 G/B C9
E|---------------------------------------------------|
B|---3---1--0----3---35/3-----3---3------3----3--3--|
G|---0---0--0----2---24/2-----0---0------0----0--0--|
D|---------------------------------------------------|
A|----------------------------------------2--3----3--|
E|-3---3-------2-------------0---0-------------------|

G G D4/F#
Ainda sinto o gosto desse beijo seu
Em7 G/B
Sinto o teu corpo colado no meu
C9 G (solo 1)
E as minhas mãos suando de tanto desejo

E|-8-8h7p8-------------------|
B|----------8----------------| (solo 1)
G|--------------57--4--2h4--|
D|---------------------------|

G G D4/F#
O tempo vai passando e eu te amo mais
Em7 G/B
Amores e paixões você é minha paz
C9 G (Riff 1)
Você no coração te amo em segredo

E|--------------------|
B|-------3p1----------| Riff 1
G|-----0-----0--------|
D|-0h2---------0h2p0--|
A|--------------------|

Am C G
Nunca imaginei que um dia eu ia amar assim
Am G/B C9 D4 (Riff 2)
O teu sorriso me completa vem cuidar de mim

G|-----------|
D|------0----| Riff 2
A|--0h2------|
E|-----------|

Refrão:
G G D4/F#
Menina se soubesse o quanto eu te amo é
Em7 G/B C9
Do tamanho do universo é praia é maré
D4 (Riff 3)
Te amo mais que ontem menos do que amanhã

B|------------------|
G|---------------0--|
D|------0--0-0h2----| Riff 3
A|--0h2-------------|
E|------------------|

G G D4/F#
Menina eu não tenho tantas palavras pra expressar
Em7 Em7
Minhas palavras são de amor eu só sei cantar
C9 D4/F#
Declaro aqui agora que eu sou sempre seu fã,
G Em7 C9 G D4/F# (Solo final)
Menina...

D4 G
E|--3--3-2h3p2-------3--|
B|--3----------3-----3--|
G|--2------------2---0--| Solo final
D|--0----------------0--|
A|-------------------2--|
E|-------------------3--|

ACORDES PARA GUITARRA

PIANO UKELELE
G
D4/F#
Em7
C9
G/B
Am
C
D4



COMENTARIOS

Anónimo
Buenissima

Esta canción ya tiene 1 comentarios... ¿y tu que opinas?

Escribe un comentario o pregunta sobre esta canción


TOP 20: Las más tocadas de Gusttavo Lima

Ver más

Toca una Canción al Azar de Gusttavo Lima
G
D4/F#
Em7
C9
G/B
Am
C
D4

Nuestro servidor se demoró 0.05 segundos en generar esta página. Eso fue realmente muy rápido!