Jejum de Amor
Gusttavo Lima
Acordes

Subida por jesusmirey2019
Álbum: Do outro lado da moeda ( 2014)



Cambiar Cifrado
Americano Latino

Cambiar Tonalidad
-1 +1

Partir Pantalla Imprimir FAQ

+A
-A
Mudar para Português
LETRA CON ACORDES
Intro: E/B
C#m B9 A9 B9 E B/D#
C#m B9 A9 B9 E

Solo :

E|--------------------------------------|
B|----------5-4-4/5--5-5-5-5-2/4-4-4-2--|
G|--4-4-4-4---------------------------4-|
D|--------------------------------------|
A|--------------------------------------|
E|--------------------------------------|

E|----------------------|
B|----------------------|
G|-4-6-4h6p4-4-4/6------|
D|----------7-----4-4/6-|
A|----------------------|
E|----------------------|

E|-----------------------------------------|
B|-----------5-4-5/75--5-5-5-5-2/4-4-4-2--|
G|--4-4-4-4------------------------------4-|
D|-----------------------------------------|
A|-----------------------------------------|
E|-----------------------------------------|

E|----------------------|
B|----------------------|
G|--------4-4/6-4-------|
D|-6-7-6-7-------4-4/6--|
A|----------------------|
E|----------------------|


B/D# C#m B9
Não sou de ficar mais de uma semana sem amor
A9 B9 E
Sem um beijo, sem um corpo, tá difícil
B/D# C#m B9
Deixa eu te falar, eu vou fazer jejum de amor
A9
Pra provar o que eu sinto

E B/D# C#m
Quer saber? Eu tô arrependido
B/D#
Porque não falei no seu ouvido
A9
As frases de amor que não falei
E
Em nosso cobertor
B/D# C#m B/D#
Sentimento proibido, até parece impossível
A9 B9
Quer saber? Eu necessito ter de volta seu calor

( A/C# B/D# )

Refrão:

C#m
Sua boca é minha
A9
Domina a minha
E B9
E o que é que as duas estão fazendo tão sozinhas?
C#m
Sua boca é minha
A9
Domina a minha
E B9
E o que é que as duas estão fazendo tão sozinhas?
C#m
Ai, ai, ai, boca minha

Solo: B9 A9 B9 E B/D#
C#m B9 A9 B9 E

E|--------------------------------------|
B|----------5-4-4/5--5-5-5-5-2/4-4-4-2--|
G|--4-4-4-4---------------------------4-|
D|--------------------------------------|
A|--------------------------------------|
E|--------------------------------------|

E|----------------------|
B|----------------------|
G|-4-6-4h6p4-4-4/6------|
D|----------7-----4-4/6-|
A|----------------------|
E|----------------------|

E|-----------------------------------------|
B|-----------5-4-5/75--5-5-5-5-2/4-4-4-2--|
G|--4-4-4-4------------------------------4-|
D|-----------------------------------------|
A|-----------------------------------------|
E|-----------------------------------------|

E|----------------------|
B|----------------------|
G|--------4-4/6-4-------|
D|-6-7-6-7-------4-4/6--|
A|----------------------|
E|----------------------|

B/D# C#m B9
Não sou de ficar mais de uma semana sem amor
A9 B9 E
Sem um beijo, sem um corpo, tá difícil
B/D# C#m B9
Deixa eu te falar, eu vou fazer jejum de amor
A9
Pra provar o que eu sinto

E B/D# C#m
Quer saber? Eu tô arrependido
B/D#
Porque não falei no seu ouvido
A9
As frases de amor que não falei
E
Em nosso cobertor

B/D# C#m B/D#
Sentimento proibido, até parece impossível
A9 B9
Quer saber? Eu necessito ter de volta seu calor

( A/C# B/D# )

Refrão:

C#m
Sua boca é minha
A9
Domina a minha
E B9
E o que é que as duas estão fazendo tão sozinhas?
C#m
Sua boca é minha
A9
Domina a minha
E B9
E o que é que as duas estão fazendo tão sozinhas?
C#m
Sua boca é minha
A9
Domina a minha
E B9
E o que é que as duas estão fazendo tão sozinhas?
C#m
Ai, ai, ai, boca minha

Final: B9 A9 B9 E B/D#
C#m B9 A9 B9 E

E|--------------------------------------|
B|----------5-4-4/5--5-5-5-5-2/4-4-4-2--|
G|--4-4-4-4---------------------------4-|
D|--------------------------------------|
A|--------------------------------------|
E|--------------------------------------|

E|----------------------|
B|----------------------|
G|-4-6-4h6p4-4-4/6------|
D|----------7-----4-4/6-|
A|----------------------|
E|----------------------|

E|-----------------------------------------|
B|-----------5-4-5/75--5-5-5-5-2/4-4-4-2--|
G|--4-4-4-4------------------------------4-|
D|-----------------------------------------|
A|-----------------------------------------|
E|-----------------------------------------|

E|----------------------|
B|----------------------|
G|--------4-4/6-4-------|
D|-6-7-6-7-------4-4/6--|
A|----------------------|
E|----------------------|

ACORDES PARA GUITARRA

PIANO UKELELE
E/B
C#m
B9
A9
E
B/D#
A/C#



COMENTARIOS

Aún no hay comentarios,

¡escribe el primero!

Escribe un comentario o pregunta sobre esta canción


TOP 20: Las más tocadas de Gusttavo Lima

Ver más

Toca una Canción al Azar de Gusttavo Lima
E/B
C#m
B9
A9
E
B/D#
A/C#

Nuestro servidor se demoró 0.05 segundos en generar esta página. Eso fue realmente muy rápido!