Caso Consumado
Gusttavo Lima
Acordes

Subida por Romaroly2015



Otras Versiones

Cambiar Cifrado
Americano Latino

Cambiar Tonalidad
-1 +1

Partir Pantalla Imprimir FAQ

+A
-A
Mudar para Português
LETRA CON ACORDES
A           E                        F#m
Eu te amo, eu te quero, mas assim não da
D A
Nosso caso é consumado e não da pra esperar.
E F#m
Você vai ver o que perdeu quando me encontrar
D A
Nos braços de outro alguém ai cê vai chorar

(solo)

(parte 1)
E|--------------------------7-5--------|
B|---5---7-5---5------5---5-----7------|
G|-6---6-----6------6---6--------------|
D|-------------------------------------|
A|-------------------------------------|
E|-------------------------------------|

(parte 2)
E|--------------------------7p5--------|
B|---5---7-5---5------5---5-----7/9--7-|
G|-6---6-----6------6---6--------------|
D|-------------------------------------|
A|-------------------------------------|
E|-------------------------------------|

(intro)

A E F#m D
Tentei te procurar você se escondeu
A E F#m D
As vezes penso que de mim você se esqueceu.
A E D
Suas atitudes me provaram que a paixão
A E D
As vezes é intensa as vezes é em vão.

Bm D A E
Meus pensamentos a chorar
Bm D E E7
Preso no tempo sem chance de voltar

A E F#m
Eu te amo, eu te quero, mas assim não da
D A
Nosso caso é consumado e não da pra esperar.
E F#m
Você vai ver o que perdeu quando me encontrar
D A
Nos braços de outro alguém ai cê vai chorar.

(solo)

(parte 1)
E|--------------------------7-5--------|
B|---5---7-5---5------5---5-----7------|
G|-6---6-----6------6---6--------------|
D|-------------------------------------|
A|-------------------------------------|
E|-------------------------------------|

(parte 2)
E|--------------------------7p5--------|
B|---5---7-5---5------5---5-----7/9--7-|
G|-6---6-----6------6---6--------------|
D|-------------------------------------|
A|-------------------------------------|
E|-------------------------------------|

Bm D A E
Meus pensamentos a chorar
Bm D E E7
Preso no tempo sem chance de voltar

A E F#m
Eu te amo, eu te quero, mas assim não da
D A
Nosso caso é consumado e não da pra esperar.
E F#m
Você vai ver o que perdeu quando me encontrar
D A
Nos braços de outro alguém ai cê vai chorar.

ACORDES PARA GUITARRA

PIANO UKELELE
A
E
F#m
D
Bm
E7



COMENTARIOS

Aún no hay comentarios,

¡escribe el primero!

Escribe un comentario o pregunta sobre esta canción


TOP 20: Las más tocadas de Gusttavo Lima

Ver más

Toca una Canción al Azar de Gusttavo Lima
A
E
F#m
D
Bm
E7

Nuestro servidor se demoró 0.02 segundos en generar esta página. Eso fue realmente muy rápido!