Chora Chora
Gusttavo Lima
Acordes

Subida por Enrique


Más Versiones
Ver. 2 Ver. 3 Ver. 4 Ver. 5 Ver. 6

Cambiar Cifrado
Americano Latino

Cambiar Tonalidad
-1 +1

Partir Pantalla Imprimir FAQ

+A
-A
Mudar para Português
Intro:
C G F G
E|-------------------------|--------------------------------|
B|-5h6-5-3-1-1h3-3/5-5-3-1-|-1-1-1-3-3/5-3-1--3/5-6p5-3-3/5-|
G|-------------------------|--2-2---------------------------|
D|-------------------------|--------------------------------|
A|-------------------------|--------------------------------|
E|-------------------------|--------------------------------|

C G F G
E|------------------|-------------------------|
B|-1-1-1-3-3/5-3-1--|-5h6-5-3-1-1h3-3/5-5-3-1-|
G|--2-2-------------|-------------------------|
D|------------------|-------------------------|
A|------------------|-------------------------|
E|------------------|-------------------------|

C G
Viu eu te avisei
F
que esse teu novo
G
amor ia dar em nada
C G F
Viu eu bem que te avisei B|-5h6-5-3-1-|
C
Não deu valor
G
Saiu de mim
F G
Foi viver paixão de brincadeira
C G F F Em Dm
Viu eu bem que te avisei B|-5h6--1/3h5-3-|
Dm Em
Agora toda arrependida

Quer voltar atras
F
Hoje sou eu que não te quer
G
Pra mim não rola mais

Refrão:
C G
Quando eu queria me dizia não
F G
Agora Chora Chora Coração
C G
Não adianta vir me procurar
F G C
Já tem outra pessoa em seu lugar
G
Quando eu queria me dizia não
F G
Agora Chora Chora Coração
C G
Não adianta vir me procurar
F G C
Já tem outra pessoa em seu lugar
G F
aah ha aah ha
G C
outra em seu lugar
Solo:
C G F G
E|-------------------------|--------------------------------|
B|-5h6-5-3-1-1h3-3/5-5-3-1-|-1-1-1-3-3/5-3-1--3/5-6p5-3-3/5-|
G|-------------------------|--2-2---------------------------|
D|-------------------------|--------------------------------|
A|-------------------------|--------------------------------|
E|-------------------------|--------------------------------|

C G F G
E|------------------|-------------------------|
B|-1-1-1-3-3/5-3-1--|-5h6-5-3-1-1h3-3/5-5-3-1-|
G|--2-2-------------|-------------------------|
D|------------------|-------------------------|
A|------------------|-------------------------|
E|------------------|-------------------------|

C G
Viu eu te avisei
F
que esse teu novo
G
amor ia dar em nada
C G F
Viu eu bem que te avisei B|-5h6-5-3-1-|
C
Não deu valor
G
Saiu de mim
F G
Foi viver paixão de brincadeira
C G F F Em Dm
Viu eu bem que te avisei B|-5h6--1/3h5-3-|
Dm Em
Agora toda arrependida
Quer voltar atras
F
Hoje sou eu que não te quer
G
Pra mim não rola mais

Refrão:
C G
Quando eu queria me dizia não
F G
Agora Chora Chora Coração
C G
Não adianta vir me procurar
F G C
Já tem outra pessoa em seu lugar
G
Quando eu queria me dizia não
F G
Agora Chora Chora Coração
C G
Não adianta vir me procurar
F G C
Já tem outra pessoa em seu lugar
G
Quando eu queria me dizia não
F G
Agora Chora Chora Coração
C G
Não adianta vir me procurar
F G C
Já tem outra pessoa em seu lugar
G F
aah ha aah ha
G C
outra em seu lugar

ACORDES PARA GUITARRA

PIANO UKELELE
C
G
F
Em
Dm


COMENTARIOS

Aún no hay comentarios,

¡escribe el primero!

Escribe una pregunta, duda o comentario sobre esta canción, te responderemos a la brevedad.

Las más tocadas de Gusttavo Lima

Toca una Canción al Azar de Gusttavo Lima
C
G
F
Em
Dm