Do Outro Lado da Moeda

Gusttavo Lima

Acordes

Do outro lado da moeda (2014)
Subida por Gnolaumcervantes


Más Versiones
Ver. 2 Ver. 3 Ver. 4 Ver. 5 Ver. 6

Cambiar Cifrado
Americano Latino

Cambiar Tonalidad
-1 +1

Partir Pantalla Imprimir FAQ

+A
-A
Mudar para Português
Intro Guitarra:

E|------------------------------| E|-------------|
B|-x-x-x-7-x---8-8-8-7~---------| 3x B|-8--7--------|
G|---------------------7~-------| G|------7~~~---|
D|------------------------------| D|-------------|
A|------------------------------| A|-------------|
E|------------------------------| E|-------------|

G
Eu não aguento mais
C9 G
Se for pra ser assim Deus sabe o que faz
C9
Assuma que me ama
D
Ou me deixe em paz
C9 G7
Eu me viro mesmo longe de você
G
Eu não aguento mais
C9 G
Chega de me agredir no meio da conversa
C9
Se você não fala
D
Tanto me interessa
C9 G/B C9 G G/B
O outro lado da moeda tanto faz
C9 D Em
Se é pra calar a paixão
C9 D
Precisamos decidir se é eu ou se é você
C9 D Em
Se esse amor for em vão
C9 D G D
Um de nois vai conhecer o que é perder
G
Quem é que vai sentir primeiro
Em
Quem vai entrar em desespero?
Am C9
Pedir perdão por caridade

E|-----------------------------------|
B|-6-5-3-3/5--5-3--------------------|
G|------4--------4-2-----------------|
D|-------------------5-2-------------|
A|-----------------------5-2---------|
E|---------------------------5-3-----|

D
Dizer que só tudo é pior
C9
E quem bateu não teve dó
G D
Que é grande o peso da saudade
G
Quem é que vai se arrepender?
Em
Quem vai chorar quem vai dizer
Am C9
Já chega para!!

E|-----------------------------------|
B|-6-5-3-3/5--5-3--------------------|
G|------4--------4-2-----------------|
D|-------------------5-2-------------|
A|-----------------------5-2---------|
E|---------------------------5-3-----|

D
Quem é que vai se humilhar?
C9
Chegar ao ponto de falar
G
Quebrei a cara

Solo de guitarra:

E|----------------------------------------------------------------------------------------------------|
B|-/20-20---20/22-20-20-19-19h20---/20-20----20b23--b23r20 20p17-17-----------------------------------|
G|--------19------------------------------19-------------------------16h17-16-------16h17-16---16/19--|
D|----------------------------------------------------------------------------17-17----------17-------|
A|----------------------------------------------------------------------------------------------------|
E|----------------------------------------------------------------------------------------------------|

C9 D Em
Se é pra calar a paixão
C9 D
Precisamos decidir se é eu ou se é você

E|-17b19-b19r17p15-15---|
B|----------------------|
G|----------------------|
D|----------------------|
A|----------------------|
E|----------------------|

C9 D Em
Se esse amor for em vão

E|-14b15------|
B|-------15---|
G|------------|
D|------------|
A|------------|
E|------------|

C9 D G D
Um de nois vai conhecer o que é perder

E|-------------------|
B|-------------------|
G|-4-2-0------2-4/9--|
D|-------4-2-0-------|
A|-------------------|
E|-------------------|

G
Quem é que vai sentir primeiro
Em
Quem vai entrar em desespero?
Am C9
Pedir perdão por caridade

E|-----------------------------------|
B|-6-5-3-3/5--5-3--------------------|
G|------4--------4-2-----------------|
D|-------------------5-2-------------|
A|-----------------------5-2---------|
E|---------------------------5-3-----|

D
Dizer que só tudo é pior
C9
E quem bateu não teve dó
G D
Que é grande o peso da saudade
G
Quem é que vai se arrepender?
Em
Quem vai chorar quem vai dizer
Am C9
Já chega para!!

E|-----------------------------------|
B|-6-5-3-3/5--5-3--------------------|
G|------4--------4-2-----------------|
D|-------------------5-2-------------|
A|-----------------------5-2---------|
E|---------------------------5-3-----|

D
Quem é que vai se humilhar?
C9
Chegar ao ponto de falar
G
Quebrei a cara

NUEVO FORO DE MÚSICA

¿Tienes alguna duda, consulta, pregunta, consejo o algo para compartir sobre esta canción?

¡Puedes abrir un hilo en el FORO para que la comunidad te ayude! Hacer una pregunta

ACORDES PARA GUITARRA

PIANO UKELELE
G
C9
D
G7
G/B
Em
Am


Las más tocadas de Gusttavo Lima

G
C9
D
G7
G/B
Em
Am