Eu Te Quero Sim
Gusttavo Lima
Acordes

Subida por GARERE



Cambiar Cifrado
Americano Latino

Cambiar Tonalidad
-1 +1

Partir Pantalla Imprimir FAQ

+A
-A
Mudar para Português
LETRA CON ACORDES
Intro 2x: B9  F#  E  Em
Solo:
E|---------------------------------------------------------------------------|
B|------7-7---7-7-------7-7--7-7h9--7-----4-5-4-5-4--------------------------|
G|--6/8-----8-------8-6-6-6--6-6----6---------------4--4-6/76-4-6-6/76-4---|
D|---------------------------------------------------------------------------|
A|---------------------------------------------------------------------------|
E|---------------------------------------------------------------------------|

E|----------------------7-7--7-----------------------------------------------|
B|--------7-7---7-7------------9-7---4-5-4-5-4-------------------------------|
G|--6-6/8-----8-----8-6------------------------4--4-6/76--6-6/76-4--6-4----|
D|---------------------------------------------------------------------------|
A|---------------------------------------------------------------------------|
E|---------------------------------------------------------------------------|

Primeira Parte 2x:
B9 F# G#m
Eu não sei dizer realmente o que aconteceu
E
O teu olhar feito um cometa veio de encontro ao meu
B9 F# E
Confundiu meu coração não sei explicar
B9 F# G#m
A todo instante a toda hora você está em mim
E
Você é a flor mais linda de todo jardim
B9 F# E
Não vai se livrar de mim pode acreditar
C#m E F#
Vou fazer serenata pra você
C#m E F#
Eu topo tudo, até mudo o jeito de viver.

Refrão:
B9 F#
Eu te quero sim como a onda quer o mar
E Em
Ser o seu doce mel e pra sempre te amar
B9 F#
Eu te quero sim quero ter o seu amor
E Em
No frio do inverno pra sempre seu cobertor

Solo 2 - 2x: B9 F# E Em
E|-11-11-11--12-12--11-11--9--9--9---11-11-9--9/-7-7----|
B|-12-12-12--12-12--12-12--11-11-11--11-11-11-11/9-9----|
G|------------------------------------------------------|
D|------------------------------------------------------|
A|------------------------------------------------------|
E|------------------------------------------------------|

E|-------------------------|
B|-5-87-7-5/7-7-----------|
G|-------------------------|
D|-------------------------|
A|-------------------------|
E|-------------------------|

ACORDES PARA GUITARRA

PIANO UKELELE
B9
F#
E
Em
G#m
C#m



COMENTARIOS

Aún no hay comentarios,

¡escribe el primero!

Escribe un comentario o pregunta sobre esta canción


TOP 20: Las más tocadas de Gusttavo Lima

Ver más

Toca una Canción al Azar de Gusttavo Lima
B9
F#
E
Em
G#m
C#m

Nuestro servidor se demoró 0.03 segundos en generar esta página. Eso fue realmente muy rápido!