Homem de Família
Gusttavo Lima
Acordes

Subida por JasonUsabs



Otras Versiones
Ver. 2

Cambiar Cifrado
Americano Latino

Cambiar Tonalidad
-1 +1

Partir Pantalla Imprimir FAQ

+A
-A
Mudar para Português
LETRA CON ACORDES
Intro:

G D5/A
E|------------------------------------------|
B|-3-----3---3-------3h5-5-5-75-3----------|
G|-2h4---4---2-------2---2-2-------2-2/4~-2-|
D|-0-----0---0-4/54---------42------------|
A|-----------0-------0---0-0--------------0-|
E|-3---3---3--------------------------------|

Primeira Parte:

G5 D5/A A Bm D/F#
Te olhei, você me olhou
G5 D5/A
Agora minha vida acredita
A
Nunca acreditei
Bm
Em amor a primeira vista

Pré-refrão:

G5 D5
Até você aparecer do nada
A
E arrancar minha cachaça
Bm
Com o seu beijo de batom
G5 D5
Até você aparecer do nada
A
E quem diria que do carro
G5 A G/B A/C#
Agora até tirei o meu som

Refrão:

D5
E quem me viu
A
Se visse hoje não acreditaria
Bm
Que o cachaceiro virou homem de família
G5 A
Troquei a noite pelo dia

D5
E quem me viu
A
Se visse hoje não acreditaria
Bm
Troquei o bar, agora é só sorveteria
G5
Só eu e ela quem diria
A D5
Que o cachaceiro virou homem de família

Base Solo:

A Bm G5 A

Solo:

Parte 1

E|----------------------------------------------------|
B|-5/7-7-7-7-7-7-7--7/10-10-10-----10-9-5-------------|
G|-6/8-8-8-8-8-8-8--8/11-11-11------------------------|
D|------------------------------11----9-6-------------|
A|----------------------------------------------------|
E|----------------------------------------------------|

Parte 2

E|----------------------------------------------------|
B|------10-10--9-9-9----5---5--7--7--7----------------|
G|----------------------6-8-6--8--8--8----------------|
D|-6/11--------9-9-9--7-7-9-7--9--9--9----------------|
A|----------------------------------------------------|
E|----------------------------------------------------|

Pré-refrão:

G5 D5
Até você aparecer do nada
A
E arrancar minha cachaça
Bm
Com o seu beijo de batom
G5 D5
Até você aparecer do nada
A
E quem diria que do carro
G5 A G/B A/C#
Agora até tirei o meu som

Refrão:

D5
E quem me viu
A
Se visse hoje não acreditaria
Bm
Que o cachaceiro virou homem de família
G5 A
Troquei a noite pelo dia

D5
E quem me viu
A
Se visse hoje não acreditaria
Bm
Deixei o bar, agora é só sorveteria
G5
Só eu e ela quem diria
A D5
Que o cachaceiro virou homem de família

A
Acreditaria
Bm
Que o cachaceiro virou homem de família
G5 A
Troquei a noite pelo dia

D5
E quem me viu
A
Se visse hoje não acreditaria
Bm
Troquei o bar, agora é só sorveteria
G5
Só eu e ela quem diria
A D5
Que o cachaceiro virou homem de família

Base Solo: A Bm

Solo:

Parte 1

E|----------------------------------------------------|
B|-5/7-7-7-7-7-7-7--7/10-10-10-----10-9-5-------------|
G|-6/8-8-8-8-8-8-8--8/11-11-11------------------------|
D|------------------------------11----9-6-------------|
A|----------------------------------------------------|
E|----------------------------------------------------|

G5
Só eu e ela quem diria
A G5
Que o cachaceiro virou homem
A G/B A/C#
De família
D5
De família

ACORDES PARA GUITARRA

PIANO UKELELE
G
D5/A
G5
A
Bm
D/F#
D5
G/B
A/C#



COMENTARIOS

Aún no hay comentarios,

¡escribe el primero!

Escribe un comentario o pregunta sobre esta canción


TOP 20: Las más tocadas de Gusttavo Lima

Ver más

Toca una Canción al Azar de Gusttavo Lima
G
D5/A
G5
A
Bm
D/F#
D5
G/B
A/C#

Nuestro servidor se demoró 0.06 segundos en generar esta página. Eso fue realmente muy rápido!