Perrengue
Gusttavo Lima
Acordes

Subida por kolia



Otras Versiones
Ver. 2

ENTRENA TU OÍDO MUSICAL CON ESTE JUEGO. ¿QUÉ ACORDE ES?. CLIC AQUÍ PARA JUGAR

Cambiar Cifrado
Americano Latino

Cambiar Tonalidad
-1 +1

Partir Pantalla Imprimir FAQ

Ver solo la LETRA

+A
-A
Mudar para Português
LETRA CON ACORDES
[Intro] C  G  Am7  F9

E|----------12-13-13/15---------------------|
B|-12h13-15--------------12h13-15-13h15-----|
G|------------------------------------------|
D|------------------------------------------|
A|------------------------------------------|
E|------------------------------------------|

E|----------12-13-13/15---------------------|
B|-12h13-15--------------13h15--13h15p13----|
G|------------------------------------------|
D|------------------------------------------|
A|------------------------------------------|
E|------------------------------------------|

E|------------------------------------------|
B|-13-13-13--12-12-12--8h10p8---------------|
G|------------------------------------------|
D|------------------------------------------|
A|------------------------------------------|
E|------------------------------------------|

[Primeira Parte]

C
E não foi só uma vez não
G
Que eu tentei reconciliação
Am7
Eu bati demais na mesma tecla
F9
Eu querendo paz e você guerra

[Pré-Refrão]

Dm7 F
Até onde eu sei relacionamento é a dois
C G
Meu nome na sua agenda era atender depois
Dm7
Terminei, fiquei mal
F
Eu tô triste
Dm7 G
Mas quando um não quer dois não existe

[Refrão]

C G
E que eu vou sentir falta, eu vou
Am7 F
Eu vou beber lembrando, eu vou
C G
Cê vai passar o perrengue que meu coração sofreu
Dm7 F
Quando perceber que me perdeu

C G
E que eu vou sentir falta, eu vou
Am7 F
Eu vou beber lembrando, eu vou
C G
Cê vai passar o perrengue que meu coração sofreu
Dm7 C/E F
Quando perceber que me perdeu

Tudo que vai volta menos eu

[Solo] C G Am7 F
Am7 G F

E|----------12-13-13/15---------------------|
B|-12h13-15--------------12h13-15-13h15-----|
G|------------------------------------------|
D|------------------------------------------|
A|------------------------------------------|
E|------------------------------------------|

E|----------12-13-13/15---------------------|
B|-12h13-15--------------13h15--13h15p13----|
G|------------------------------------------|
D|------------------------------------------|
A|------------------------------------------|
E|------------------------------------------|

E|-12-13-15p13-15p13--12-13-15p13-15p13-----|
B|------------------------------------------|
G|------------------------------------------|
D|------------------------------------------|
A|------------------------------------------|
E|------------------------------------------|

E|-13-15-17p15-17p15--13-15-17p15-17p15-----|
B|------------------------------------------|
G|------------------------------------------|
D|------------------------------------------|
A|------------------------------------------|
E|------------------------------------------|

E|-12-13-12-13-12-13-12h13p12--10--8h10p8---|
B|------------------------------------------|
G|------------------------------------------|
D|------------------------------------------|
A|------------------------------------------|
E|------------------------------------------|

[Pré-Refrão]

Dm7 F
Até onde eu sei relacionamento é a dois
C G
Meu nome na sua agenda era atender depois
Dm7
Terminei, fiquei mal
F
Eu tô triste
Dm7 G
Mas quando um não quer dois não existe

[Refrão]

C G
E que eu vou sentir falta, eu vou
Am7 F
Eu vou beber lembrando, eu vou
C G
Cê vai passar o perrengue que meu coração sofreu
Dm7 C/E F
Quando perceber que me perdeu

C G
E que eu vou sentir falta, eu vou
Am7 F
Eu vou beber lembrando, eu vou
C G
Cê vai passar o perrengue que meu coração sofreu
Dm7 C/E F
Quando perceber que me perdeu

( Am7 G Bb9 F )

[Solo] Dm7 C Bb9 Am7 F G

E|----13----13----13----13----13----13-15-13|
B|-15----15----15----15----15----15---------|
G|------------------------------------------|
D|------------------------------------------|
A|------------------------------------------|
E|------------------------------------------|

E|----12----12----12----12----12------------|
B|-13----13----13----13----13----13---------|
G|------------------------------------------|
D|------------------------------------------|
A|------------------------------------------|
E|------------------------------------------|

E|-12-12h13--12h13p12-----------------------|
B|------------------------------------------|
G|------------------------------------------|
D|------------------------------------------|
A|------------------------------------------|
E|------------------------------------------|

E|-10...--12...--13...--13/15---------------|
B|------------------------------------------|
G|------------------------------------------|
D|------------------------------------------|
A|------------------------------------------|
E|------------------------------------------|

[Refrão]

C# G#
E que eu vou sentir falta, eu vou
A#m7 F#
Eu vou beber lembrando, eu vou
C# G#
Cê vai passar o perrengue que meu coração sofreu
D#m7 C# F#
Quando perceber que me perdeu

Tudo que vai volta menos eu

( D#m7 C#9 B9 C#9 )
( D#m7 C#9 B9 C#9 )

[Final] C# G# A#m7 F# C#

E|------------------------------------------|
B|-7/9-97-76--6/76-4~--------------------|
G|------------------------------------------|
D|------------------------------------------|
A|------------------------------------------|
E|------------------------------------------|

E|------------------------------------------|
B|-7/9-97-76--6/76-2~--------------------|
G|------------------------1h3-3p1-1~--------|
D|------------------------------------------|
A|------------------------------------------|
E|------------------------------------------|

ACORDES PARA GUITARRA

PIANO UKELELE
C
G
Am7
F9
Dm7
F
C/E
Bb9
C#
G#
A#m7
F#
D#m7


COMENTARIOS

Aún no hay comentarios,

¡escribe el primero!

Para hacer una pregunta o dejar un comentario sobre esta canción, debes estar LOGUEADO

Las canciones más tocadas de Gusttavo Lima

Toca una Canción al Azar de Gusttavo Lima
C
G
Am7
F9
Dm7
F
C/E
Bb9
C#
G#
A#m7
F#
D#m7

Nuestro servidor se demoró 0.13 segundos en generar esta página. Eso fue realmente muy rápido!