Refém
Gusttavo Lima
Acordes

Subida por camiletto



Cambiar Cifrado
Americano Latino

Cambiar Tonalidad
-1 +1

Partir Pantalla Imprimir FAQ

+A
-A
Mudar para Português
LETRA CON ACORDES
[Intro] E  C#m  A  B

E|--------12--14------16----9-11-12-11-9---------12--14------16----9-7-------------------|
B|----------12-------------9-----------------------12-----------------10---9h10-9--------|
G|--11/13--------13/16---------------------11/13--------13/16-----9------9--------9-9/11-| (2x)
D|---------------------------------------------------------------------------------------|
A|---------------------------------------------------------------------------------------|
E|---------------------------------------------------------------------------------------|

E C#m A B
Eu não me imaginava sem você meu bem querer, amor pra sempre
E C#m A B A
Só esses cabelos pretos me faz bem, quando não tem, fico doente
E C#m
Se você não existisse iria te inventar
A F#m
Na forma de um anjo mais lindo iria te amar
B B A E
Eu respiro você
E C#m
Só você não sabe o quanto eu te quero bem
A A G#m F#m
Vou te fazer a minha vítima minha refém
F#m B
Você está sempre presente na memória
A G#m F#m E
Quero eternizar você na minha história

( E C#m A B )
( E C#m A B )

E|--------12--14------16----9-11-12-11-9---------12--14------16----9-7-------------------|
B|----------12-------------9-----------------------12-----------------10---9h10-9--------|
G|--11/13--------13/16---------------------11/13--------13/16-----9------9--------9-9/11-| (2x)
D|---------------------------------------------------------------------------------------|
A|---------------------------------------------------------------------------------------|
E|---------------------------------------------------------------------------------------|

E C#m A B
Eu não me imaginava sem você meu bem querer, amor pra sempre
E C#m A B A
Só esses cabelos pretos me faz bem, quando não tem, fico doente
E C#m
Se você não existisse iria te inventar
A F#m
Na forma de um anjo mais lindo iria te amar
B B A E
Eu respiro você
E C#m
Só você não sabe o quanto eu te quero bem
A A G#m F#m
Vou te fazer a minha vítima minha refém
F#m B
Você está sempre presente na memória
A G#m F#m E
Quero eternizar você na minha história

( C )

F Dm
Se você não existisse iria te inventar
Bb Gm
Na forma de um anjo mais lindo iria te amar
C C Bb F
Eu respiro você
F Dm
Só você não sabe o quanto eu te quero bem
Bb Bb Am Gm
Vou te fazer a minha vítima minha refém
Gm C
Você está sempre presente na memória
Bb Am Gm F
Quero eternizar você na minha história

E|-----------|
B|-----------|
G|-3-2-0-----|
D|--------3~-|
A|-----------|
E|-----------|

ACORDES PARA GUITARRA

PIANO UKELELE
E
C#m
A
B
F#m
G#m
C
F
Dm
Bb
Gm
Am



COMENTARIOS

Aún no hay comentarios,

¡escribe el primero!

Escribe un comentario o pregunta sobre esta canción


TOP 20: Las más tocadas de Gusttavo Lima

Ver más

Toca una Canción al Azar de Gusttavo Lima
E
C#m
A
B
F#m
G#m
C
F
Dm
Bb
Gm
Am

Nuestro servidor se demoró 0.03 segundos en generar esta página. Eso fue realmente muy rápido!