Super Homem (part. Edson)
Gusttavo Lima
Acordes

Subida por javierlz



Cambiar Cifrado
Americano Latino

Cambiar Tonalidad
-1 +1

Partir Pantalla Imprimir FAQ

+A
-A
Mudar para Português
LETRA CON ACORDES
Intro:
E|----------------------------------------|
B|-7-7-7-7-7/10-5---3p2-3p2---------------|
G|--------------------------4-2-----------|
D|-------------------------------0h2-0h2--|
A|----------------------------------------|
E|----------------------------------------|

E|--------------------------------5-|
B|---------3-5/7-5----------3-3/5-5-|
G|-----2-4----------------0---------|
D|-2h4------------------------------|
A|------------------0-2-3-----------|
E|----------------------------------|

D D9 Bm
Dependo tanto desse amor pra sobreviver
G A D D9
Pra ser de novo o que fui preciso de voce ,
Passagem 1:
E|---------|
B|--5/7-5--|
G|---------|
D|---------|
A|---------|
E|---------|

D D9 G
Contigo não tenho fracasso sou um super homem ,
D A D A
Contigo não sei quem eu sou , esqueço até meu nome
Passagem 2:
E|-5/75--|
B|-5/75--|
G|--------|
D|--------|
A|--------|
E|--------|

D A Bm
Só não consigo entender o quanto eu te amo
G A D D9
A noite eu deito pra dormir mais não me vem o sono,
D D9 G Gm
E quando eu consigo dormir já é de madrugada ,.
D A D D7
A minha vida sem você tá valendo nada .

Refrão:
G D
Sem você, sou carta que saiu do jogo
A
Sou brasa que não pega fogo
G A D D D7
Que não acende a sua chama .
G D
Sem você , estou perdido no deserto
A
Preciso desse amor por perto
G A D A
Eu sou o homem que te ama.
Solo 2:
E|-------------------------------------------|
B|-5-5-5h7-7p5-3-5-5-5-5-3-2-3-2---------5-5-|
G|-------------------------------4-2---------|
D|-----------------------------------4/6-----|
A|-------------------------------------------|
E|-------------------------------------------|
H.N.
E|-------------3p2-0---2---------------------------5---7--|
B|-------------------3-------------------------3/5-5---7--|
G|-------0-2-4----------------0-2/4-2--------2---------7--|
D|-0-2-4------------------0-2--------------2-----------7--|
A|-------------------------------------0h2----------------|
E|--------------------------------------------------------|

D D9 Bm
Só não consigo entender o quanto eu te amo
G A D D9
A noite eu deito pra dormir mais não me vem o sono,
D D9 Bm
E quando eu consigo dormir ja e de madrugada,
G A G D D7
A minha vida sem você tá valendo nada.

Refrão 2x:
G D
Sem você, sou carta que saiu do jogo
A
Sou brasa que não pega fogo
G A D D D7
Que não acende a sua chama .
G D
Sem você , estou perdido no deserto
A
Preciso desse amor por perto
G A D A
Eu sou o homem que te ama.

Refrão: (aumenta meio tom)
G# D#
Sem você, sou carta que saiu do jogo
Bb
Sou brasa que não pega fogo
G# D# D#7
Que não acende a sua chama .
G# D#
Sem você , estou perdido no deserto
Bb
Preciso desse amor por perto
G# Bb D#
Eu sou o homem que te ama.

ACORDES PARA GUITARRA

PIANO UKELELE
D
D9
Bm
G
A
Gm
D7
G#
D#
Bb
D#7



COMENTARIOS

Aún no hay comentarios,

¡escribe el primero!

Escribe un comentario o pregunta sobre esta canción


TOP 20: Las más tocadas de Gusttavo Lima

Ver más

Toca una Canción al Azar de Gusttavo Lima
D
D9
Bm
G
A
Gm
D7
G#
D#
Bb
D#7

Nuestro servidor se demoró 0.03 segundos en generar esta página. Eso fue realmente muy rápido!