Volver a casa
Intoxicados
Acordes

Subida por Serclepa


Más Versiones
Ver. 2 Ver. 3 Ver. 4 Ver. 5 Ver. 6
+A
-A
INTRO (esto lo hace tapando con la mano derecha las
cuerdas 2 o 3 veces)

e|-------------------|
B|-------------------|
G|----4-4-4-4-3-2-0--|
D|----4-4-4-4-3-2-0--|
A|-2-----------------|
E|-------------------|

RIFF PRINCIPAL

e|-------------------|
B|-------------------|
G|-4---4-4-4-4-3-2-0-|
D|-4---4-4-4-4-3-2-0-|
A|-2---2-2-2---------|
E|-------------------|

RIFF
Si algun dia te hice
RIFF
mal perdoname nena
RIFF
y dejame entrar
RIFF
hace tiempo te engañe
B5 B5
pero ahora nena quisiera
B5 B5 E
vo-lver volver a casa
RIFF
volver a casa
E
volver a casa
RIFF
volver a casa


con el tiempo volveras
a extrañarme nena
y me gustara porque un dia me canse
pero ahora nena quiesiera volver
volver a casa
volver a casa

es facil la cancion hay que sacar el ritmo del riff
y listo.
saludos a todos


ACORDES PARA GUITARRA

PIANO UKELELE
B5
E


COMENTARIOS

Aún no hay comentarios,

¡escribe el primero!

Escribe una pregunta, duda o comentario sobre esta canción, te responderemos a la brevedad.

Las más tocadas de Intoxicados

Toca una Canción al Azar de Intoxicados
B5
E