Quieren rock
Intoxicados
Acordes

Subida por jesussimba
Álbum: Buen día ( 2001)


Más Versiones
Ver. 2 Ver. 3 Ver. 4 Ver. 5 Ver. 6
+A
-A
Intro:Riff1
A5 Riff2
Los chicos saben donde esta la accion
A5 Riff2
se estan preparando mientras baja el sol
A5 Riff2
La banda que les gusta se presenta hoy
A5
chicos y chicas quieren rock
Riff1 Riff1 Riff1
Quieren rock, rock, rock
Riff1
quieren rock

Subo al escenario y veo de repente
chicos intoxicados por el rock n`roll
ya colgaron sus banderas y cantan como siempre
que salga la banda que queremos rock
Solo:B5 Riff2 B5 D5 E5 B5
B5 Riff3
Los chicos saben donde esta la accion
B5 Riff3
se estan preparando mientras baja el sol
B5 Riff3
La banda que les gusta se presenta hoy
B5
chicos y chicas quieren rock
Riff4 Riff4 Riff4
quieren rock, rock, rock
Riff4
quieren rock
Riff1 1* terminacion 2*terminacion
e-------------------- ------- -------
b-------------------- ------- -------
g-------------------- ------- -------
d-2-----2-4-2-2-----2 4-2-2-- ---2---
a-0-3-0-0-0-0-0-3-0-0 0-0-0-- ---0---
e-------------------- ------3 -3---3-

Riff2
e--------------------------------
b--------------------------------
g--------------------------------
d---2---2-4-2-2-2---2-4-2-2------
a-0-3-0-0-0-0-0-3-0-0-0-0-0-3-0--
e-------------------------------3
Riff3
e--------------------------------
b--------------------------------
g--------------------------------
d---4-4-4-6-4-4-4-4-4-6-4-4-4-4--
a-2-5-2-2-2-2-2-5-2-2-2-2-2-5-2--
e-------------------------------5
Riff4
e------------------------
b------------------------
g------------------------
d-4-4-4-4-6-4-4-4-4-4--4-
a-2-5-2-2-2-2-2-5-2-2--2-
e---------------------5-5


ACORDES PARA GUITARRA

PIANO UKELELE
A5
B5
D5
E5


COMENTARIOS

Aún no hay comentarios,

¡escribe el primero!

Escribe una pregunta, duda o comentario sobre esta canción, te responderemos a la brevedad.

Las más tocadas de Intoxicados

Toca una Canción al Azar de Intoxicados
A5
B5
D5
E5