Corazón, boli y papel

Porta

Acordes

Subida por hidalgo6269


Más Versiones
Ver. 2 Ver. 3

Cambiar Cifrado
Americano Latino

Cambiar Tonalidad
-1 +1

Partir Pantalla Imprimir FAQ

+A
-A


Ver solo la LETRA
1parte:
e----7-8-10---8-7---------|-----7-8-10---8-10---12-8-|
B-10----------------10----|--10----------------------|
G----------------------9--|--------------------------|
D-------------------------|--------------------------|
A-------------------------|--------------------------|
E-------------------------|--------------------------|

e-----7-8-10---8-10---12---8--12-10----8-10-8-7----------|-------|
B--10--------------------------------------------10-8--10|-------|
G--------------------------------------------------------|--9----|
D--------------------------------------------------------|----7--|
A--------------------------------------------------------|-------|
E--------------------------------------------------------|-------|

2parte:
e----7-8-10---8-7-------|------7-8-10---8-10---12--|
B-10---------------10---|---10---------------------|
G---------------------9-|--------------------------|
D-----------------------|--------------------------|
A-----------------------|--------------------------|
E-----------------------|--------------------------|


e-----7-8-10---8-10--12---8-12-10--8-10-7------------|-------|
B-10-----------------------------------------10-8--10|----10-|
G----------------------------------------------------|--9----|
D----------------------------------------------------|-------|
A----------------------------------------------------|-------|
E----------------------------------------------------|-------|

..............................................................
1
1
2
1
luego se repite igual.

//
Si se preguntan q se parece a un tema del anime "samurai x" ,
si estan en lo correcto es igual,
jeje, por eso me gusta tanto salu2


NUEVO FORO DE MÚSICA

¿Tienes alguna duda, consulta, pregunta, consejo o algo para compartir sobre esta canción?

¡Puedes abrir un hilo en el FORO para que la comunidad te ayude! Hacer una pregunta

ACORDES PARA GUITARRA

PIANO UKELELE


Las más tocadas de Porta