Un sincorazón en el reino de los corazones
Porta
Acordes

Subida por mcampos


Más Versiones
Ver. 2 Ver. 3

Cambiar Cifrado
Americano Latino

Cambiar Tonalidad
-1 +1

Partir Pantalla Imprimir FAQ

+A
-A


Ver solo la LETRA
Guitarra 1
|-----1-----1-----5-----5-----5-----5-----5--
|---3-----3-----6-----6-----6-----6-----6----
|-2-----2-----5-----5-----4-----4-----3-----3
|--------------------------------------------
|--------------------------------------------
|-------------------------------------------- (bis x4)

Guitarra 2
|---0--1--0--1--3--1--5--6--5--3--1--0----
|-3------------------------------------3--
|-----------------------------------------
|-----------------------------------------
|-----------------------------------------
|----------------------------------------- (bis x2)

|---0--1--0------
|-3---------3----
|-------------2--
|----------------
|----------------
|----------------

|---0--1--0--1--3--1--5--6--5--3--1--0----
|-3------------------------------------3--
|-----------------------------------------
|-----------------------------------------
|-----------------------------------------
|----------------------------------------- (bis x2)

|---0--1--0--5--10--
|-3-----------------
|-------------------
|-------------------
|-------------------
|-------------------

|---0--1---0--1---0--1--3--1--0---0--1--3--5--6--5--3--1--0-----
|-3------3------3---------------3---------------------------3--2
|---------------------------------------------------------------
|---------------------------------------------------------------
|---------------------------------------------------------------
|--------------------------------------------------------------- (bis x2)

|----------------------------------------------------------
|---0--1---0--1---0--1--3--1--0---0--1--3--5--6--5--3--1--5
|-2------2------2---------------2--------------------------
|----------------------------------------------------------
|----------------------------------------------------------
|----------------------------------------------------------

|---0--1--0--1--3--1--5--6--5--3--1--0----
|-3------------------------------------3--
|-----------------------------------------
|-----------------------------------------
|-----------------------------------------
|----------------------------------------- (bis x2)
Etc...etc... jaja (asi le siguen)


y asi va jeje voten :P
esta rola esta bien chida y me puse a sacarla (tambie la canción)
jaja


ACORDES PARA GUITARRA

PIANO UKELELE


COMENTARIOS

Aún no hay comentarios,

¡escribe el primero!

Escribe una pregunta, duda o comentario sobre esta canción, te responderemos a la brevedad.

Las más tocadas de Porta

Toca una Canción al Azar de Porta