El 90 por ciento de mi eres tú
Porta
Acordes

Subida por Abbyezquivel


Más Versiones
Ver. 2 Ver. 3

Cambiar Cifrado
Americano Latino

Cambiar Tonalidad
-1 +1

Partir Pantalla Imprimir FAQ

+A
-A


Ver solo la LETRA
Hola aca [Flavio] aca les dejo este tab

|-----------0------1------3-----5--------8--6----5---------
|---3---------------------5-----6----------------6---------
|-------2---0------2---2-----------------------------------
|---3--------------------------------7-----------------7---
|----------------------------------------------------------
|----------------------------------------------------------

|---5--------6------8--------10--6----5--------3------5---------
|---6--------8------8-----------------6--------5------6---------
|------------------------0--------------------------------------
|-------7---------------------------------7-----------------7---
|---------------------------------------------------------------
|---------------------------------------------------------------

|---6--------8------5---------------3--------6--5-----------------
|---8--------8------6--------6------5----------------6------------
|-------7--------------------7------------0----------7--------7---
|------------------------7--------------------------------7-------
|-----------------------------------------------------------------
|-----------------------------------------------------------------

|----------------------------0-------------------
|---5------------------------5------3--------3---
|---5--------5----------------------2--------2---
|-------------------7--------------------3-------
|-------7----------------7-----------------------
|------------------------------------------------

cualquier cancion escribanme a mi correo
[email protected] y visiten mi blog
http://flavioguitarra.blogspot.com/


ACORDES PARA GUITARRA

PIANO UKELELE


COMENTARIOS

Aún no hay comentarios,

¡escribe el primero!

Escribe una pregunta, duda o comentario sobre esta canción, te responderemos a la brevedad.

Las más tocadas de Porta

Toca una Canción al Azar de Porta