Entre avenidas y aceras
Porta
Acordes

Subida por Diegomarini


Más Versiones
Ver. 2

Cambiar Cifrado
Americano Latino

Cambiar Tonalidad
-1 +1

Partir Pantalla Imprimir FAQ

+A
-A


Ver solo la LETRA
Hola aca [Flavio] y aqui cumpliendo con otra peticion naa mas y gracias.

|------18---18-18-18---16-14-13-------16---16-16-16--------------------
|---16--------------------------16-14----------------------------------
|----------------------------------------------------------------------
|----------------------------------------------------------------------
|----------------------------------------------------------------------
|----------------------------------------------------------------------

|-----------------------18---18-18-18---16-14-13-------16---16-16-16---
|------14-16-18-19-16----------------------------16-14-----------------
|---13-----------------------------------------------------------------
|----------------------------------------------------------------------
|----------------------------------------------------------------------
|----------------------------------------------------------------------

|--------------------------------------------
|------14-16-18-19-16------14-16-18-19-16----
|---13------------------13-------------------
|--------------------------------------------
|--------------------------------------------
|--------------------------------------------

cualquier cancion escribanme a mi correo
[email protected] y visiten mi blog
http://flavioguitarra.blogspot.com/


ACORDES PARA GUITARRA

PIANO UKELELE


COMENTARIOS

Aún no hay comentarios,

¡escribe el primero!

Escribe una pregunta, duda o comentario sobre esta canción, te responderemos a la brevedad.

Las más tocadas de Porta

Toca una Canción al Azar de Porta