Tetris Rap
Porta
Acordes

Subida por eduquito68


Más Versiones
Ver. 2 Ver. 3

Cambiar Cifrado
Americano Latino

Cambiar Tonalidad
-1 +1

Partir Pantalla Imprimir FAQ

+A
-A


Ver solo la LETRA
Esta cancion se repite a lo largo de la cancion y aprovecho para
invitar a todo el que lea esto y sea fan de porta que se sepa una
cancion por favor la publique para poder disfrutar la musica de porta

E 0------------------0---------------0--------|
B -0-1-3--1-0-----1-----3-1-0--0-1-3---1------|
G ------------2-2------------------------2-2--|
D --------------------------------------------|
A --------------------------------------------|
E --------------------------------------------|

E ---1--5-3-1-0-----0----------------0--------|
B 3---------------1---3--1--0-0-1-3----1------|
G ---------------------------------------2-2--|
D --------------------------------------------|
A --------------------------------------------|
E --------------------------------------------|

E 0------------------0---------------0--------|
B -0-1-3--1-0-----1-----3-1-0--0-1-3---1------|
G ------------2-2------------------------2-2--|
D --------------------------------------------|
A --------------------------------------------|
E --------------------------------------------|

E ---1--5-3-1-0-----0----------------0--------|
B 3---------------1---3--1--0-0-1-3----1------|
G ---------------------------------------2-2--|
D --------------------------------------------|
A --------------------------------------------|
E --------------------------------------------|


ACORDES PARA GUITARRA

PIANO UKELELE


COMENTARIOS

Aún no hay comentarios,

¡escribe el primero!

Escribe una pregunta, duda o comentario sobre esta canción, te responderemos a la brevedad.

Las más tocadas de Porta

Toca una Canción al Azar de Porta