Son recuerdos y promesas rotas
Porta
Acordes

Subida por MatiasRolon1301


Más Versiones
Ver. 2

Cambiar Cifrado
Americano Latino

Cambiar Tonalidad
-1 +1

Partir Pantalla Imprimir FAQ

+A
-A


Ver solo la LETRA
e-------------|-------------|-------------|
B-------------|-------------|-------------|
G-------------|-------------|-------------|
D----3---0----|----3---0----|---3---0-----|
A--2---2------|--2---2------|-2---2-------|
E-------------|-------------|-------------|

e-------------|-------------|-------------|
B-------------|-------------|-------------|
G-------------|-------------|-------------|
D----------0--|-------------|-------------|
A----4---0----|-------------|-------------|
E--3---3------|-------------|-------------|

e-------------|-------------|-------------|
B-------------|-------------|-------------|
G-------------|-------------|-------------|
D----3---0----|----3---0----|-------------|
A--2---2------|--2---2------|----4----0---|
E-------------|-------------|--3---3------|

e-------------|-------------|-------------|
B-------------|-------------|-3-2---2-3---|
G-------------|-----2-4-6-4-|-----4-----2-|
D-------------|-2-4---------|-------------|
A---2---22----|-------------|-------------|
E-0---2-------|-------------|-------------|

e-------------|---------------|-------------|
B-2-2-3-------|---------------|---2-3-2-----|
G-------4-----|-11-9-9-7-7-6-6|-4-------2-4-|
D-------------|---------------|-------------|
A-------------|---------------|-------------|
E-------------|---------------|-------------|

e----------------|-------------|-------------|
B----------------|-------------|-12-14-15-17-|
G-------11-12-14-|-------11-12-|-------------|
D----12----------|----12-------|-------------|
A-14-------------|-14----------|-------------|
E----------------|-------------|-------------|

e----------------|-----------|-------------|
B-15-14-15-15-12-|-----------|-------------|
G----------------|-----------|-------------|
D----------------|-----------|-------------|
A----------------|-----------|-------------|
E----------------|-----------|-------------|

bueno aca les dejo el tema espero que les guste

pidanme cansiones en:[email protected]


ACORDES PARA GUITARRA

PIANO UKELELE


COMENTARIOS

Aún no hay comentarios,

¡escribe el primero!

Escribe una pregunta, duda o comentario sobre esta canción, te responderemos a la brevedad.

Las más tocadas de Porta

Toca una Canción al Azar de Porta