April Suits
Taproot
Acordes

Subida por Hamj
Álbum: Blue‐Sky Research ( 2005)


Más Versiones

Cambiar Cifrado
Americano Latino

Cambiar Tonalidad
-1 +1

Partir Pantalla Imprimir FAQ

+A
-A


Ver solo la LETRA
Intro:

|-----------------|
|-1-1-1-1-1-1-1-1-|
|-2-2-2-2-2-2-2-2-|
|-2-2-2-2-2-2-2-2-|
|-----------------|
|-----------------|



Verse:
2x|
|----------------------------|-----------------------------|
|-1-------1------------------|-1-------1-------------------|
|-2--2-0--0------------------|-2--2-0--0-------------------|
|-2-------2-----3--0-----0-2-|-2-------2-----3--0----------|
|---------3-----3--0---3-----|---------3-----3--0---1-0----|
|---------------3--0---------|---------------3--0-------5--|





Chorus:
2x|
|-------------------------------------------|-----------------------------------------------------------|
|-1-1-1-1-0-0-0-0-1-1-----------------------|-----------------------------------------------------------|
|-2-0-0-0-0-0-0-0-0-0-----------------------|-----------------------------------------------------------|
|-2-2-2-2-2-2-2-2-2-2---3-3--------5-5------|-7-7-7-7-5h7-7-7-7-7-5h7-5-5-5-5-5-5-0-0-0-0-0-------------|
|---3-3-3-3-3-3-3-3-3---3-3-5-3-2--5-5----3-|-7-7-7-7-5h7-7-7-7-7-5h7-5-5-5-5-5-5-0-0-0-0-0-------------|
|-----------------------3-3--------5-5-2-3--|-7-7-7-7-5h7-7-7-7-7-5h7-5-5-5-5-5-5-0-0-0-0-0-------------|


Bridge:

|----------------------------|
|----------------------------|
|----------------------------|
|-0----0-----0-7-10-13-12-10-|
|-0----0-----0-7-10-13-12-10-|
|-0----0-----0-7-10-13-12-10-|



2nd Chorus:

Equal but 1 tone up


Final:
2x|
|--------------------------------------------------------------------------------------------------------|
|--------------------------------------------------------------------------------------------------------|
|-4-4-4-4-4-4--6-6-6-6-6-6--7-7-7-7-7-7--9-9-9-9-9-9-----------------------------------------------------|
|-----------------------------------------------------9-9-9-9-9-9--7-7-7-7-7-7--5-5-5-5-5-5--2-2-2-2-2-2-|
|-2-2-2-2-2-2--4-4-4-4-4-4--5-5-5-5-5-5--7-7-7-7-7-7-----------------------------------------2-2-2-2-2-2-|
|-----------------------------------------------------9-9-9-9-9-9--7-7-7-7-7-7--5-5-5-5-5-5--2-2-2-2-2-2-|

ACORDES PARA GUITARRA

PIANO UKELELE


COMENTARIOS

Aún no hay comentarios,

¡escribe el primero!

Escribe una pregunta, duda o comentario sobre esta canción, te responderemos a la brevedad.

Las más tocadas de Taproot

Toca una Canción al Azar de Taproot