Impact
Taproot
Acordes

Subida por CesiahG
Álbum: Gift ( 2000)


Más Versiones

Cambiar Cifrado
Americano Latino

Cambiar Tonalidad
-1 +1

Partir Pantalla Imprimir FAQ

+A
-A

Intro:
G|-----------------------|
D|-----------------------|
A|-----------------------|
E|-----------0-----------|x8
A|-0h11-3p1-0-0-333p11h3-|

Verse:
G|-----------------------| |-----------------------|
D|-----------------------| |-----------------------|
A|-----------7-----------| |-----------------------|
E|-5h66-8p6-5-5---------|x4|-----------0-----------|
A|-----------------------| |-0h11-3p1-0-0----------|

G|-----------------------|-----------------------|-----------------------|
D|-----------------------|-----------------------|-----------------------|
A|-----------7-----------|-----------------------|-----------7-----------|
E|-5h66-8p6-5-5---------|-----------0-----------|-5h66-8p6-5-5---------|
A|-----------------------|-0h11-3p1-0-0----------|-----------------------|

Chorus:
G|------------------|------------------|------------------|------------|
D|-------4---4------|-------5---5------|------------------|------------|
A|----4----4---4----|----5----5---5----|-------5---5------|------------|
E|-2----------------|-3----------------|----5----5---5----|------------|
A|------------------|------------------|-5----------------|--Intro-x1--|

G|------------------|------------------|------------------|------------|
D|-------4---4------|-------5---5------|------------------|------------|
A|----4----4---4----|----5----5---5----|-------5---5------|------------|
E|-2----------------|-3----------------|----5----5---5----|------------|
A|------------------|------------------|-5----------------|--Intro-x4--|

Verse:
Chorus:
Bridge:
G|---------------------------|
D|---------------------------|
A|---------------------------|
E|---------------------------|x7
A|-0h1h3-3p1-0h1h3-3p1-0h1h3-|

Intro x1
Different Verse:
G|-----------------------| |-----------------------|
D|-----------------------| |-----------------------|
A|-----------7-----------| |-----------------------|
E|-5h66-8p6-5-5---------|x4|-----------0-----------|
A|-----------------------| |-0h11-3p1-0-0----------|

G|-----------------------|-----------------------|-----------------------|
D|-----------------------|-----------------------|-----------------------|
A|-----------7-----------|-----------------------|-----------------------|
E|-5h66-8p6-5-5---------|-----------0-----------|-----------0-----------|
A|-----------------------|-0h11-3p1-0-0----------|-0h11-3p1-0-0----------|

Chorus:
End: at the fourth time
G|-----------------------|
D|-----------------------|
A|-----------------------|
E|-----------0-----------|
A|-0h11-3p1-0------------|


ACORDES PARA GUITARRA

PIANO UKELELE


COMENTARIOS

Aún no hay comentarios,

¡escribe el primero!

Escribe una pregunta, duda o comentario sobre esta canción, te responderemos a la brevedad.

Las más tocadas de Taproot

Toca una Canción al Azar de Taproot