as SHE | Taproot | Acordes

She

Taproot

Acordes

Blue‐Sky Research (2005)
Subida por toro1380ivan



Cambiar Cifrado
Americano Latino

Cambiar Tonalidad
-1 +1

Partir Pantalla Imprimir FAQ

+A
-A


Ver solo la LETRA

bass tab

by : doky 2006
*

5-stringed bass
G D A E B

intro / break

|-------------------|
|-------------------|
|-------------------|
|-------------------|
|-1-1-11-2-2-24-4-4-|

verso

|----------------------|
|----------------------|
|-3-3-3-3-3-4-4-6-6----|
|----------------------|
|--1---1---1-2-2-4-41-|

pre-coro / coro

|---------------------------------|
|---------------------------------|
|-33333333-6666666----------------|
|-----------------4444444-6666666-|
|---------------------------------|

variacion de coro

|--------------------------------------|
|-----53-------------------------------|
|-3333--63-666-8p6-8p6-----------------|
|----------------------4444444-6666666-|
|--------------------------------------|

variacion de *

|-------------------------|
|-------------------------|
|-33333333-6666666--------|
|-----------------4444444-|
|-------------------------|

middle

|---------------------------|
|---------------------------|
|---------------------------|
|-3--4--13--4--13--4--131---|
|------------------------4--|

|----------------------------|
|----------------------------|
|----------------------------|
|-13--4--13--4--13--4--131---|
|-------------------------4--|

quiero salutar al grupo que tengo ahora pero que aun no tocamos y no tiene nombre, ellos
el chuper, el pablo, el castro y como no hay baterista aun peor todavia, espero que
algun dia. doky 2006

NUEVO FORO DE MÚSICA

¿Tienes alguna duda, consulta, pregunta, consejo o algo para compartir sobre esta canción?

¡Puedes abrir un hilo en el FORO para que la comunidad te ayude! Hacer una pregunta

ACORDES PARA GUITARRA

PIANO UKELELE


Las más tocadas de Taproot