When
Taproot
Acordes

Subida por Michael
Álbum: Welcome ( 2002)



Cambiar Cifrado
Americano Latino

Cambiar Tonalidad
-1 +1

Partir Pantalla Imprimir FAQ

+A
-A

The tuning is standard (E,A,D,G,B,E) and played with distortion


Intro
--------------------------------------------------------|
--------------------------------------------------------|
--------------------------------------------------------|
---------5-----------------0--7--0----------------------|10 times
--0--2------2--0--2--0----------------------------------|
--------------------------------------------------------|

1st riff
---------------------------------------------------------|
---------------------------------------------------------|
---------------------------------------------------------|
--4--5--4----2--2--2--4--5--4-----7--7--7----------------|2 times
--2--3--2---------------2--3--2--------------------------|
---------------------------------------------------------|

verse
----------------------------------------------------------|
----------------------------------------------------------|
----------------------------------------------------------|
--4-4-4-4-----4h5/4-4-4-----------------------------------|
--4-4-4-4-----4h5/4-4-4------2--2--2--2-----5-------------|
--2-2-2-2--0--2h3/2-2-2--2---2--2--2--2--0--5-------------|

----------------------------------------------------------|
----------------------------------------------------------|
----------------------------------------------------------|
--4-4-4-4-----4h5/4-4-4------x-x-x--0--5------------------|
--4-4-4-4-----4h5/4-4-4------x-x-x--5---------------------|
--2-2-2-2--0--2h3/2-2-2--2---x-x-x--5---------------------|

------------------------------------------------------------|
------------------------------------------------------------|
------------------------------------------------------------|
--4-4-4-4-----4h5/4-4-4-------------------------------------|
--4-4-4-4-----4h5/4-4-4-----2--2--2--2-----5----------------|
--2-2-2-2--0--2h3/2-2-2--2--2--2--2--2--0--5----------------|

-----------------------------------------------------------|
-----------------------------------------------------------|
-----------------------------------------------------------|
--4-4-4-4-----4h5/4-4-4------x-x-x-------------------------|
--4-4-4-4-----4h5/4-4-4------x-x-x-------------------------|
--2-2-2-2--0--2h3/2-2-2--2---x-x-x-------------------------|

play intro 8 times

play 1st riff twice

play the verse


Solo
---------------------------------------------------------------------|
---------------------------------------------------------------------|
-6--6--0-3-4--6--6--9--7-6-7-6--5--5--0-2-3--4--4--5-4-2-0-4----2----| times
---------------------------------------------------------------------|
---------------------------------------------------------------------|
---------------------------------------------------------------------|

2nd riff
----------------------------------------------|
----------------------------------------------|
----------------------------------------------|
--0---0---0---0---0---0---0-------------------|
--2---3---2---0---0---0---0-------------------|
--2---3---2---0---5---5---5-------------------|

Play verse but watch for the double mute from the verse in the end.

ACORDES PARA GUITARRA

PIANO UKELELE


COMENTARIOS

Aún no hay comentarios,

¡escribe el primero!

Escribe una pregunta, duda o comentario sobre esta canción, te responderemos a la brevedad.

Las más tocadas de Taproot

Toca una Canción al Azar de Taproot