Mine
Taproot
Acordes

Subida por Rafaelwooft
Álbum: Welcome ( 2002)



Cambiar Cifrado
Americano Latino

Cambiar Tonalidad
-1 +1

Partir Pantalla Imprimir FAQ

+A
-A
Album: Welcome.
Transcribed by: Paul.
E-mail: *


correct tabs for it I decidid to tab it. It's played in Drop A tuning

Intro heavy distortion.
B|----------------------------|
G|----------------------------|
D|----------------------------|
A|-0-0-0----0-0-0-------------|
E|-0-0-0----0-0-0-------------|
A|-0-0-0----0-0-0-------------|

Play this when he starts singing reapet 4x.
B|----------------------------------------------------------------------------|
G|----------------------------------------------------------------------------|
D|-7-----7--5--5--3--7-----7--5--5--3--7-----7--5--5--3-7--7-----7--5--5--3---|
A|----------------------------------------------------------------------------|
E|-5-----5--3--3--1--5-----5--3--3--1--5-----5--3--3--1-5--5-----5--3--3--1---|
A|----------------------------------------------------------------------------|

Chorus reapet 7x.
B|----------------------------------------------|
G|----------------------------------------------|
D|-7-5-5-5-7-5-5-5-3-7-5-5-5-7-5-5-5-3----------|
A|-7-5-5-5-7-5-5-5-3-7-5-5-5-7-5-5-5-3----------|
E|-5-3-3-3-5-3-3-3-1-5-3-3-3-5-3-3-3-1----------|
A|----------------------------------------------|

B|--------------------------------------|
G|--------------------------------------|
D|-7----7--5--5-3--7----7--5--5-3-------|
A|--------------------------------------|
E|-5----5--3--3-1--5----5--3--3-1-------|
A|--------------------------------------|

Pre-chorus.
B|--------------------------------------------------------------------|
G|--------------------------------------------------------------------|
D|---7---7---7------5---5---5-----7----7--5--5--3---------------------|
A|--------------------------------------------------------------------|
E|-5---5---5---5--3---3---3---3---5----5--3--3--1---------------------|
A|-------------------------------------------------0-0-0-0-0-0-0-0----|

Chorus reapet 7x.
B|-------------------------------------------|
G|-------------------------------------------|
D|-7-5-5-5-7-5-5-5-3-7-5-5-5-7-5-5-5-3-------|
A|-7-5-5-5-7-5-5-5-3-7-5-5-5-7-5-5-5-3-------|
E|-5-3-3-3-5-3-3-3-1-5-3-3-3-5-3-3-3-1-------|
A|-------------------------------------------|

Interlude.
B|------------------------------------------------------|
G|-----------------7-5-------------------7-5------------|
D|---------------------5---------------------5----------|
A|------------------------------------------------------|
E|-------5-3-------------------5-3----------------------|
A|-3-6-8-----3-0-3-------3-6-8-----3-0-3----------------|

Guitar 2 plays this.
B|---------------------------------------------------|
G|---------------------------------------------------|
D|---------------------------------------------------|
A|-6--6-6-6-6-3--3-3-3-3-6--6-6-6-6-3---3------------|
E|-6--6-6-6-6-3--3-3-3-3-6--6-6-6-6-3---3------------|
A|-6--6-6-6-6-3--3-3-3-3-6--6-6-6-6-3---3------------|


Well thats the whole song. Any questions or comments just E-mail me.

ACORDES PARA GUITARRA

PIANO UKELELE


COMENTARIOS

Aún no hay comentarios,

¡escribe el primero!

Escribe una pregunta, duda o comentario sobre esta canción, te responderemos a la brevedad.

Las más tocadas de Taproot

Toca una Canción al Azar de Taproot