as LOWLIFE | Taproot | Acordes

Lowlife

Taproot

Acordes

…Something More Than Nothing (1998)
Subida por guz34



Cambiar Cifrado
Americano Latino

Cambiar Tonalidad
-1 +1

Partir Pantalla Imprimir FAQ

+A
-A


Ver solo la LETRA

bass tab

by : doky 2007
*

5-stringed bass
G D A E B

INTRO
G-|--------------------|------------------------------------------|
D-|--------------------|------------------------------------------|
A-|--------------------|------------5----------7--------5---------|
E-|-3---5---3---5---35-|-5-55-55-55---55-555-5---55-555---5-5-555-|
B-|--------------------|------------------------------------------


VERSO
G-|---------------|
D-|-----7---------|
A-|---7---5-5h7-5-|
E-|-5-------------|
B-|---------------|


CORO (VA CON RITMO)
G-|-------------|
D-|-------------|
A-|-0-0-0-0-0-0-|
E-|-------------|
B-|-------------|


BREAK/FIN
G-|-------------|-----|
D-|-------------|-----|
A-|-------------|-----|
E-|-------------|-----|
B-|-33-33-3-333-|-3-|

Les mando congratulations a La Yarits, La Andy y Al Esponja. me recuerdo cuando nos hemos encontrado con El
Esponja e luego han aparesido las chicas y hemos comido helado barts y buñuelos hechos por Andy.
luego hemos hecho rebentar una casa de stege y un pelucho bien rata con 2 matasuegras cerca del
barranco de mi zona, solo habian ovejas, borrachos y 4 perros.

NUEVO FORO DE MÚSICA

¿Tienes alguna duda, consulta, pregunta, consejo o algo para compartir sobre esta canción?

¡Puedes abrir un hilo en el FORO para que la comunidad te ayude! Hacer una pregunta

ACORDES PARA GUITARRA

PIANO UKELELE


Las más tocadas de Taproot