Cant Not
Taproot
Acordes

Subida por Delta
Álbum: …Something More Than Nothing ( 1998)



Cambiar Cifrado
Americano Latino

Cambiar Tonalidad
-1 +1

Partir Pantalla Imprimir FAQ

+A
-A

bass tab

by : doky 2007
*

5-stringed bass
G D A E B

INTRO
G-|----------------|---|------------5-----5-|
D-|----7---5h7---5-|---|----7---5h7---5h7---|
A-|-00---0-----7---|---|-00---0-------------|
E-|----------------|---|--------------------|
B-|----------------|---|--------------------|
+

BREAK
G-|----------------|---|--------------------|
D-|----7---5h7---5-|---|----7---------------|
A-|-00---0-----7---|---|-00---0-------------|
E-|----------------|---|--------5h6-5h6-5h6-|
B-|----------------|---|--------------------|
+

VERSO
G-|---------------------|--------|
D-|---------------------|--------|
A-|---------------------|--------|
E-|-3--5/7-5--3--0---3--|--------|
B-|---------------------|-8-----|


CORO
G-|--------------|-------------|--------------|----------------|
D-|--------------|-------------|--------------|----------------|
A-|--------------|---------000-|--------------|----------------|
E-|-3-3-3131-111-|-3-3-313-----|-3-3-3131-111-|-3-3-313--------|
B-|--------------|-------------|--------------|---------111111-|


MIDDLE
G-|-----------|
D-|-----------|
A-|-7-0-7-0---|
E-|---------6-|
B-|-----------|

Les mando congratulaciones a los bateros que contacte pero que nunca los vi en accion, porque
creo que se desanimaron y no me llamaron ni nada.
Ellos son: el Rynner Delgado, que no pudo porque baila en la central de Gran Poder oe.
el Rene Monasterios, que no pudo porque... no se... no me dijo.
la Magui, que no pudo porque ya tenia banda de guerra.

doky2007



ACORDES PARA GUITARRA

PIANO UKELELE


COMENTARIOS

Aún no hay comentarios,

¡escribe el primero!

Escribe una pregunta, duda o comentario sobre esta canción, te responderemos a la brevedad.

Las más tocadas de Taproot

Toca una Canción al Azar de Taproot