Compartir


Imprimir FAQ
+A
-A

Texto

Desplazamiento

Transportador

Color de Fondo

Archivos

-A
+A

bass tab

by : doky 2007
*

5-stringed bass
G D A E B

   INTRO/BREAK
G-|-----------------|
D-|-----------------|
A-|-2---0-------0---|
E-|---------3-------|
B-|-----------------|


   VERSO
G-|---------------------------|
D-|---------------------------|
A-|----------------5------7---|
E-|-------------33---3-55---5-|
B-|-0-0/17------------------|


   CORO
G-|-------------------|
D-|-------------------|
A-|-------------------|
E-|-5-555555-7-777777-|
B-|-------------------|


   MIDDLE
G-|-------------|
D-|-------------|
A-|-----0---2---|
E-|-3-----------|
B-|-------------|


G-|-----------------|
D-|-----------------|
A-|-00-00-0-00-00-0-|
E-|-----------------|
B-|-----------------|


G-|---------------|
D-|---------------|
A-|-0-20-0-20-020-|
E-|---------------|
B-|---------------|

Les mando asips harta congratulacion Alastorezaga, a La Andrea Rodriguez y a Su Hermana 
no se que era pero era
pero estaba ese dia en que El Alastorezaga se oculto en atras del auto y le hizo asustar 
La Andrea,
luego tenia que hacer lo mismo con su hermana y justo cuando llego le pesco ocultandose.

doky2007

HERRAMIENTAS ACORDESWEB:


LETRA DE LA CANCIÓN:

Ver la letra sola (sin acordes)

DESCARGAR PDF / IMPRIMIR CANCIÓN



ACORDES PARA GUITARRA

PIANO UKELELE


TOP 20: Las más tocadas de Taproot


Toca una Canción al Azar de Taproot

Acordes

Cerrar

00.47

x

89