Shine
Taproot
Acordes

Subida por isra
Álbum: Upon Us ( 1999)


Más Versiones

Cambiar Cifrado
Americano Latino

Cambiar Tonalidad
-1 +1

Partir Pantalla Imprimir FAQ

+A
-A


Ver solo la LETRA

Tuning (AEADGB)

Intro/Verses (with weird effect)
B|------------------------------|
G|------------------------------|
D|--2---2-2---2-2---2-2----2-2--|
A|--x---x-x---x-x---x-x----x-x--|
E|--1---1-1---1/3---3-3----3-3--|
A|------------------------------|

Chorus 1
B|------------------------------------------------|
G|------------------------------------------------|
D|------------------------------------------------|
A|--7---7---7-7-7-7-5----5--7--7--7-7-7-7-5----5--|
E|--8---8---8-8-8-8-5----5--8--8--8-8-8-8-5----5--|
A|--7---7---7-7-7-7-5----5--7--7--7-7-7-7-5----5--|

Fill thingy before chorus 2
B|---------------------------|
G|---------------------------|
D|--------4------------4-----|
A|--5-4-3-------5-4-3--------|
E|---------------------------|
A|------------------------0--|

Chorus 2
B|---------------------------------------------------|
G|---------------------------------------------------|
D|--5--5-5-------------------------------------------|
A|--5--5-5--2--2-2--2--3--3-3-3--3-3-3-3-3--3-3-3-3--|
E|--3--3-3--2--2-2--2--3--3-3-3--3-3-3-3-3--3-3-3-3--|
A|----------2--2-2--2--3--3-3-3--3-3-3-3-3--3-3-3-3--|

Bridge
/pm /pm /pm /pm Last part
B|----------------------------------------------|-------------------------------------|
G|----------------------------------------------|-------------------------------------|
D|--------4----------4------------4----------4--|---------4----------4-4-4-4-4-4-4-4--|
A|--5-4-3-----5-4-3---------5-4-3-----5-4-3-----|--5-4-3--3---5-4-3--3-3-3-3-3-3-3-3--|
E|----------------------------------------------|-------------------------------------|
A|----------------------0-----------------------|-------------------------------------|
Last part
B|------------------------------------------------------------|---------|
G|------------------------------------------------------------|---------|
D|---------4----------4-----------4----------4-4-4-4-4-4-4-4--|---------|
A|---------3----------3-----------3----------3-3-3-3-3-3-3-3--|---------|
E|--5-4-3------5-4-3----0--5-4-3------5-4-3-------------------|--5-4-3--|
A|--5-4-3------5-4-3----0--5-4-3------5-4-3-------------------|--5-4-3--|

Last part of song
B|------------------------|
G|------------------------|
D|--5--5-5----------------|
A|--5--5-5--2--2-2--2--3--|
E|--3--3-3--2--2-2--2--3--|
A|----------2--2-2--2--3--|

ACORDES PARA GUITARRA

PIANO UKELELE


COMENTARIOS

Aún no hay comentarios,

¡escribe el primero!

Escribe una pregunta, duda o comentario sobre esta canción, te responderemos a la brevedad.

Las más tocadas de Taproot

Toca una Canción al Azar de Taproot