Smile
Taproot
Acordes

Subida por Galo
Álbum: Gift ( 2000)


Más Versiones

Cambiar Cifrado
Americano Latino

Cambiar Tonalidad
-1 +1

Partir Pantalla Imprimir FAQ

+A
-A


Ver solo la LETRA
Tuning: Low A

Intro:
G|------------------|
D|------------------|
A|------------------|
E|------------------|
A|-404440444044302--| x4

Verse:
G|---------|
D|---------|
A|---------|
E|---------|
A|-3-0-2-2-|x4

Heavy Verse:
G|------------------|
D|------------------|
A|------------------|
E|------------------|
A|-3-0-2---3-0-2-2--|

Chorus:
G|-------------------------------------------------| |-------------------------|
D|-------------------------------------------------| |-------------------------|
A|-----------------------------3-5-----3-----3-----| |-------------------------|
E|-------------------------5-6-----5-6---6-5---6-5-| |-------------------------|
A|-55-5-55-5-5-66-6-66-6-6-------------------------|x3|-55-5-55-5-5-66-6-66-6-6-|

Fill:
G|------------------|
D|------------------|
A|------------------|
E|------------------|
A|-------------302--|

Intro x3
Verse
Heavy Verse
Chorus
Intro x4
Bridge
G|------------------|------------------|------------------|----------|
D|------------------|------------------|------------------|----------|
A|------------------|------------------|------------------|----------|
E|------------------|------------------|------------------|----------|
A|-1~------4~-------|-5~------2~-------|-1~---------------|-0~-------|

G|------------------|------------------|------------------|------------------|
D|------------------|------------------|------------------|------------------|
A|-----1-------4----|-----5-------2----|-----1-------1----|-----0-------0----|
E|---1---1---4---4--|---5---5---2---2--|---1---1---1---1--|---0---0---0---0--|
A|-1-------4--------|-5-------2--------|-1-------1--------|-0-------0--------|x2

G|------------------|------------------|------------------|------------------|
D|------------------|------------------|------------------|------------------|
A|------------------|------------------|------------------|------------------|
E|------------------|------------------|------------------|------------------|
A|-11-1-11-44-4-44-4|-55-5-55-22-2-22-2|-11-1-11-11-1-11-1|-00-0-00-00-0-00-0|x2

G|------|
D|------|
A|------|
E|------|
A|-5~---|

ACORDES PARA GUITARRA

PIANO UKELELE


COMENTARIOS

Aún no hay comentarios,

¡escribe el primero!

Escribe una pregunta, duda o comentario sobre esta canción, te responderemos a la brevedad.

Las más tocadas de Taproot

Toca una Canción al Azar de Taproot