Why Cant You Be Nicer To Me (The White Stripes) Acordes

Álbum: De Stijl (2000)


Tamaño de la fuente

-A
+A

BAJAR UN TONO BAJAR UN SEMI-TONO SUBIR UN SEMI-TONO SUBIR UN TONO PARTIR PANTALLA EN VERTICAL PARTIR PANTALLA EN VERTICAL ¡Ayuda!

Intro/Riff
|-----------------------------------|
|-----------------------------------|
|------12b-----12b-----12b----------|
|--9-9-----9-9-----9-9-----9-7-9-7--|

Break
|--------12-12-10p0-3-0--|
|------------------------|
|------------------------|
|--9-9-9-----------------|

Ending
|-----------------------------------|
|--0-0--0-0--0-0--0-0--0-0--0-0-----|
|-----------------------------------|
|--------------------------------0--|


¡Siguiente!

Toca una Canción al Azar de The White Stripes

Inicia Sesión para guardar
esta versión como favorita

DESCARGAS:
Descargar
(Why Cant You Be Nicer To Me.pdf)


Aún no hay comentarios, ¡escribe el primero!

Escribe un comentario o pregunta sobre esta canción:






Más canciones de The White Stripes

Jack The Ripper
The Same Boy You've Always Known
Bo Weevil
Air Near My Fingers
Candy Cane Children
300 Mph Torrential Outpour Blues
You're Pretty Good Looking
The Union Forever
The Pain
Lord Send Me An Angel
I Just Don't Know What To Do With Myself
Expecting
Aluminum
Blue Orchid
The Denial Twist
I can't wait (versão 2)
China Girl
Apple Blossom Live Solo
Big Three Killed My Baby
Effect And Cause

ABRIR ACORDES

Nuestro servidor se demoró 0.02 segundos en generar esta página. Eso fue realmente muy rápido!