Ave Seca

Spinetta y los Socios del Desierto

Acordes

Los ojos (1999)
Subida por Maximilianolopez2019


Más Versiones
Ver. 2 Ver. 3 Ver. 4

Cambiar Cifrado
Americano Latino

Cambiar Tonalidad
-1 +1

Partir Pantalla Imprimir FAQ

+A
-A


Ver solo la LETRA
LA9
Gigante, sin ojos, tu vulva
De helada gema, yaga que al
SIm
Secarse besa los pétalos
LA9
Psicosis de sabia en las ramas que
SIm
Esperan moverse con tus párpados
LA9
Soleado el borde, desde donde ansias
Regresar
MIm7
LA
Ven a volar en mi ave seca
MIm7
LA
Hecha con sobras de fantasmas
MIm7
LA
Ven a volar en mi ave seca
MIm7
LA
Ah ah....

LA9
Inútil castigo, sin fuego
Tu vientre me olvida
SIm
No tengo paz
LA9
Insomne el perro
En la casa, las ganas
de partir

MIm7
LA
Ven a volar en mi ave seca
MIm7
LA
Hecha con sobras de fantasmas
MIm7
LA
Ven a volar en mi ave seca
MIm7
LA
Hecha con hilos de diamantes
MIm7
LA



REPETIR 4 VECES

|-------5-----3-----3------------------------------------------------
|----5-----3-----3---------------------------------------------------
|-------------------------6-----------------4------6--4-----6-4--4-
|-----------------------------4--4--7--7------7---------7-----------
|----------------------------------------------------------------------
|----------------------------------------------------------------------


UNA VES Y VUELVE AL TEMA

|------5-----3----3------------------------------
|---5-----3----3------------5----3---3---------
|---------------------6---4----2----2-----------
|------------------------------------------5---2-
|-------------------------------------------------
|-------------------------------------------------

LA9
pantalla dorada, pesebre, tus hombros
MIm7
se encogen y así se olvida el mundo
LA9
Piazolla, la tarde, el aire,
Las ganas de partir

MIm7
LA
Ven a volar en mi ave seca
MIm7
LA
Hecha con sobras de fantasmas
MIm7
LA
Ven a volar en mi ave seca
MIm7
LA
Hecha con hilos de diamantes
MIm7
LA
Ah ah

MIm DO#m SIm 5 veces




MIm7
LA
Ven a volar en mi ave seca
MIm7
LA
Hecha con sobras de fantasmas
MIm7
LA
Ven a volar
MIm7
Ven a volar
LA
Ven a volar en mi ave seca
MIm7
LA
Hecha con hilos de diamantes
MIm7
LA
Ven a volar
MIm7
Ven a volar

ACORDES:

LA9

0 |----------|----------|----------|---
|----------|----0-----|----------|---
|----------|----0-----|----------|---
0 |----------|----------|----------|---
0 |----------|----------|----------|---
X |----------|----------|----------|--

SIm

|----------|----0------|----------|-----------|--
|----------|----0------|-----0----|-----------|-
|----------|----0------|----------|----0------|-
|----------|----0------|----------|----0------|-
|----------|----0------|----------|-----------|--
|----------|----0------|----------|-----------|--

MIm7

0 |----------|----------|----------|--
|----------|----------|---0------|-
0 |----------|----------|----------|--
|----------|----0-----|----------|-
|----------|----0-----|----------|-
0 |----------|----------|----------|---

MIm
0 |----------|----------|----------|--
0 |----------|----------|----------|--
0 |----------|----------|----------|--
|----------|----0-----|----------|-
|----------|----0-----|----------|-
0 |----------|----------|----------|--
LA
0 |----------|----------|----------|---
|----------|----0-----|----------|---
|----------|----0-----|----------|---
|----------|----0-----|----------|---
0 |----------|----------|----------|---
X |----------|----------|----------|--
DO#m
En traste 4
|----------|----0------|----------|-----------|--
|----------|----0------|-----0----|-----------|-
|----------|----0------|----------|----0------|-
|----------|----0------|----------|----0------|-
|----------|----0------|----------|-----------|--
|----------|----0------|----------|-----------|--


NUEVO FORO DE MÚSICA

¿Tienes alguna duda, consulta, pregunta, consejo o algo para compartir sobre esta canción?

¡Puedes abrir un hilo en el FORO para que la comunidad te ayude! Hacer una pregunta

ACORDES PARA GUITARRA

PIANO UKELELE
A9
Bm
Em7
A
Em
C#m



A9
Bm
Em7
A
Em
C#m