Piluso y Coquito

Spinetta y los Socios del Desierto

Acordes

Subida por arnaldoalvarado


Más Versiones
Ver. 2

Cambiar Cifrado
Americano Latino

Cambiar Tonalidad
-1 +1

Partir Pantalla Imprimir FAQ

+A
-A


Ver solo la LETRA
Piluso y Coquito
Spinetta
Tablatura

Hola!
Leí por ahí que este tema se lo pidieron a Luis los hijos de Olmedo
para un filme que al final nunca salió...
y Luis la registró con los geniales Marcelo y Daniel
en San Cristóforo...
La primera vez que tocaron en vivo este tema fue en agosto del 97,
en el Centro Cultural Recoleta... Esa presentación se difundió
por la radio Rock and Pop y vía Internet...
De lo que uno se viene a enterar.

Ojalá les agrade...:



Intro: [Riff 1 (x2) /
Riff 1 (x3) - Riff 2 (x1)]

B5 Am7/9
Piluso y Coquito la leche tomarán,
B5 Am7/9
escuchan a su abuela y cintas de Popeye han de mirar, oh...


Inter: [Riff 1 (x3) - Riff 2 (x1)]

B5 Am7/9
Piluso y Coquito la leche tomarán,
B5 Am7/9
escuchan a su abuela y cintas de Popeye han de mirar, oh...


Inter: [Riff 1 (x3) - Riff 2 (x1)
Riff 3 (x2) /
Solo guitarra con base B5 - Am7/9 (x6)]

Final: [Riff 1 (x3) - Riff 2 (x1)]


------------------------------------------------------------

Bueno, los acordes son los sgtes:

B5: xx4400
Am7/9: xx5500


y los riffs...:

Riff 1:
e.-------------------------------------
B.-------------------------------------
G.-------------------------------------
D.-----------------2v---------------2v-
A.-------------------------------------
E.-0^-0^-0^-3-0^-3-----0^-0^-3-0^-3----

e.--------------------------|
B.--------------------------|
G.---------------4-2----2-2-|
D.---------------4-2-2^-2-2-|
A.--------------------------|
E.-0^-0^-3-0^-0^------------|


Riff 2:
e.-------------------------------------
B.-------------------------------------
G.-------------------------------------
D.-----------------2v---------------2v-
A.-------------------------------------
E.-0^-0^-0^-3-0^-3-----0^-0^-3-0^-3----

e.--------------------------|
B.--------------------------|
G.---------------4-2-2-2--4-|
D.---------------4-2-2-2--4-|
A.--------------------------|
E.-0^-0^-3-0^-0^------------|


Riff 3:
e.-------------------------------------|------------------|
B.-12b-12-9-12-9-----------------------|-12b-12-9-12-9----|
G.---------------11-9-9h11-9-----------|---------------11-|
D.---------------------------11-9-11-9-|------------------|
A.-------------------------------------|------------------|
E.-------------------------------------|------------------|
(x3)

este último riff creo que no es exacto, pero no suena mal



Qué wah-wah tan genial usa Luis en este tema...!
Bueno, espero que les haya gustado y servido...
Chau...


NUEVO FORO DE MÚSICA

¿Tienes alguna duda, consulta, pregunta, consejo o algo para compartir sobre esta canción?

¡Puedes abrir un hilo en el FORO para que la comunidad te ayude! Hacer una pregunta

ACORDES PARA GUITARRA

PIANO UKELELE
B5
Am9



B5
Am9