Los Duendes
Spinetta y los Socios del Desierto
Acordes

Subida por Elmas
Álbum: Spinetta y los Socios del Desierto ( 1997)


Más Versiones
Ver. 2 Ver. 3 Ver. 4

HERRAMIENTAS

Cambiar Cifrado
Americano Latino

Cambiar Tonalidad
-1 +1

Partir Pantalla Imprimir FAQ

+A
-A

LETRA CON ACORDES

¿Tu Guitarra esta Afinada? PRUEBA NUESTRO NUEVO AFINADOR

Nota: los acordes que contengan () son notas opcionales, pueden estar o no,
no siempre las toca. Escuchen las que el flaco destaca en cada posición.

Los duendes


INTRO SOBRE

|---0-------0---|
|---1-------3---|
|---0-------0---|
|---2-------4---|
|---------------|
|---------------|

|-----0--------0-----------0-----0--|
|-----5--------3-----------5-----3--|
|-----0--------0-----------0-----0--|
|-----7--------5-----------7-----5--|
|-----------------------------------|
|-----------------------------------|
Un duende del agua ronda por allí

|----0-----0-----0-----0------------|
|-0--5--0--3--0--5--0--3------------|
|----0-----0-----0-----0------------|
|----7-----5-----7-----5------------|
|-----------------------------------|
|-----------------------------------|

|-----0--------0-----------0-----0--|
|-----5--------3-----------5-----3--|
|-----0--------0-----------0-----0--|
|-----7--------5-----------7-----5--|
|-----------------------------------|
|-----------------------------------|
se asoma y se aleja sin saber de ti

|----0-----0-----0-----0------------|
|-0--5--0--3--0--5--0--3------------|
|----0-----0-----0-----0------------|
|----7-----5-----7-----5------------|
|-----------------------------------|
|-----------------------------------|

|-----0--------0-----------0-----0--|
|-----5--------3-----------5-----3--|
|-----0--------0-----------0-----0--|
|-----7--------5-----------7-----5--|
|-----------------------------------|
|-----------------------------------|
El duende del aire no se apartará

|----0-----0-----0-----0------------|
|-0--5--0--3--0--5--0--3------------|
|----0-----0-----0-----0------------|
|----7-----5-----7-----5------------|
|-----------------------------------|
|-----------------------------------|

|-----0--------0-----------0-----0--|
|-----5--------3-----------5-----3--|
|-----0--------0-----------0-----0--|
|-----7--------5-----------7-----5--|
|-----------------------------------|
|-----------------------------------|
recorre la noche por siempre jamás

|----0-----0-----0-----0------------|
|-0--5--0--3--0--5--0--3------------|
|----0-----0-----0-----0------------|
|----7-----5-----7-----5------------|
|-----------------------------------|
|-----------------------------------|

|---0-------0------0-------0--------|
|---1-------3------1-------3--------|
|---0-------0------0-------0--------|
|---2-------4------2-------4--------|
|-----------------------------------|
|-----------------------------------|
No saben enigmas ni miran atrás

|---0-------0------0-----0--0-------|
|---1-------3------1-----3--3-------|
|---0-------0------0-----0--0-------|
|---2-------4------2-----4--4-------|
|-----------------------------------|
|-----------------------------------|
son solo una luz que atravesarás

|-----0--------0-----------0-----0--|
|-----5--------3-----------5-----3--|
|-----0--------0-----------0-----0--|
|-----7--------5-----------7-----5--|
|-----------------------------------|
|-----------------------------------|
El duende del tiempo aunque no sabe contar

|----0-----0-----0-----0------------|
|-0--5--0--3--0--5--0--3------------|
|----0-----0-----0-----0------------|
|----7-----5-----7-----5------------|
|-----------------------------------|
|-----------------------------------|

|-----0--------0-----------0-----0--|
|-----5--------3-----------5-----3--|
|-----0--------0-----------0-----0--|
|-----7--------5-----------7-----5--|
|-----------------------------------|
|-----------------------------------|
no espera que llegues para verte entrar

|----0-----0-----0-----0------------|
|-0--5--0--3--0--5--0--3------------|
|----0-----0-----0-----0------------|
|----7-----5-----7-----5------------|
|-----------------------------------|
|-----------------------------------|

|-----0--------0-----------0-----0--|
|-----5--------3-----------5-----3--|
|-----0--------0-----------0-----0--|
|-----7--------5-----------7-----5--|
|-----------------------------------|
|-----------------------------------|
Y el duende de las hojas sabe bailar

|----0-----0-----0-----0------------|
|-0--5--0--3--0--5--0--3------------|
|----0-----0-----0-----0------------|
|----7-----5-----7-----5------------|
|-----------------------------------|
|-----------------------------------|

|-----0--------0-----------0-----0--|
|-----5--------3-----------5-----3--|
|-----0--------0-----------0-----0--|
|-----7--------5-----------7-----5--|
|-----------------------------------|
|-----------------------------------|
se pinta de luces, se dividirá

|----0-----0-----0-----0------------|
|-0--5--0--3--0--5--0--3------------|
|----0-----0-----0-----0------------|
|----7-----5-----7-----5------------|
|-----------------------------------|
|-----------------------------------|

|-(0)-(0)-----------(0)-(0)---------|
|-(0)-(0)-----------(0)-(0)---------|
|--5---4-------------7---6----------|
|--5---4-------------7---6----------|
|-----------------------------------|
|-----------------------------------|
Oh, no son tan solo sombras
oh, no son tan solo sombras
oh, no son tan solo sombras

|--(0)-----------------(0)----------|
|--(0)-----------------(0)----------|
|---5----5-7-/9-/7-5---/7-----------|
|---5----5-7-/9-/7-5-5-/9-----------|
|--------------------5--------------|
|-----------------------------------|
nena!

|-----0--------0-----------0-----0--|
|-----5--------3-----0-----5-----3--|
|-----0--------0-----------0-----0--|
|-----7--------5-----------7-----5--|
|-----------------------------------|
|-----------------------------------|

|----0-----0-----0-----0------------|
|-0--5--0--3--0--5--0--3------------|
|----0-----0-----0-----0------------|
|----7-----5-----7-----5------------|
|-----------------------------------|
|-----------------------------------|

|-----0--------0-----------0-----0--|
|-----5--------3-----------5-----3--|
|-----0--------0-----------0-----0--|
|-----7--------5-----------7-----5--|
|-----------------------------------|
|-----------------------------------|
Un duende del agua ronda por aquí

|----0-----0-----0-----0------------|
|-0--5--0--3--0--5--0--3------------|
|----0-----0-----0-----0------------|
|----7-----5-----7-----5------------|
|-----------------------------------|
|-----------------------------------|

|-----0--------0-----------0-----0--|
|-----5--------3-----------5-----3--|
|-----0--------0-----------0-----0--|
|-----7--------5-----------7-----5--|
|-----------------------------------|
|-----------------------------------|
se asoma y se aleja sin saber de ti

|----0-----0-----0-----0------------|
|-0--5--0--3--0--5--0--3------------|
|----0-----0-----0-----0------------|
|----7-----5-----7-----5------------|
|-----------------------------------|
|-----------------------------------|

|-----0--------0-----------0-----0--|
|-----5--------3-----------5-----3--|
|-----0--------0-----------0-----0--|
|-----7--------5-----------7-----5--|
|-----------------------------------|
|-----------------------------------|
Y el duende de las hojas sabe bailar

|----0-----0-----0-----0------------|
|-0--5--0--3--0--5--0--3------------|
|----0-----0-----0-----0------------|
|----7-----5-----7-----5------------|
|-----------------------------------|
|-----------------------------------|

|-----0--------0-----------0-----0--|
|-----5--------3-----------5-----3--|
|-----0--------0-----------0-----0--|
|-----7--------5-----------7-----5--|
|-----------------------------------|
|-----------------------------------|
se pinta de luces, se dividirá

|----0-----0-----0-----0------------|
|-0--5--0--3--0--5--0--3------------|
|----0-----0-----0-----0------------|
|----7-----5-----7-----5------------|
|-----------------------------------|
|-----------------------------------|

|---0-------0------0-------0--------|
|---1-------3------1-------3--------|
|---0-------0------0-------0--------|
|---2-------4------2-------4--------|
|-----------------------------------|
|-----------------------------------|
no saben enigmas ni miran atrás

|---0-------0------0-----0--0-------|
|---1-------3------1-----3--3-------|
|---0-------0------0-----0--0-------|
|---2-------4------2-----4--4-------|
|-----------------------------------|
|-----------------------------------|
son solo una luz que atravesarás

|-----0--------0-----------0-----0--|
|-----5--------3-----0-----5-----3--|
|-----0--------0-----------0-----0--|
|-----7--------5-----------7-----5--|
|-----------------------------------|
|-----------------------------------|
Oh, oh...

|----0-----0-----0-----0------------|
|-0--5--0--3--0--5--0--3------------|
|----0-----0-----0-----0------------|
|----7-----5-----7-----5------------|
|-----------------------------------|
|-----------------------------------|

|-(0)-(0)-----------(0)-(0)---------|
|-(0)-(0)-----------(0)-(0)---------|
|--5---4-------------7---6----------|
|--5---4-------------7---6----------|
|-----------------------------------|
|-----------------------------------|
Oh, no son tan solo sombras
Oh, no son tan solo sombras
Oh, no son tan solo sombras

|--(0)-----------------(0)----------|
|--(0)-----------------(0)----------|
|---5----5-7-/9-/7-5---/7-----------|
|---5----5-7-/9-/7-5-5-/9-----------|
|--------------------5--------------|
|-----------------------------------|
Ah, yeah...

|-0-----0-----0-----0---------------|
|-5--0--3--0--5--0--3--0------------|
|-0-----0-----0-----0---------------|
|-7-----5-----7-----5---------------|
|-----------------------------------|
|-----------------------------------|
LA LA LA LA...

|-0-----0-----0---------------------|
|-5--0--3--0--5--0------------------|
|-0-----0-----0---------------------|
|-7-----5-----7-----2---------------|
|-------------------2---------------|
|-------------------0---------------|

////////////////// ¿Te Animas? Sube una canción a este sitio. //////////////////

ACORDES PARA GUITARRA

PIANO UKELELE
A


COMENTARIOS

Aún no hay comentarios,

¡escribe el primero!

Escribe una pregunta, duda o comentario sobre esta canción, te responderemos a la brevedad.

Las canciones más tocadas de Spinetta y los Socios del Desierto

Toca una Canción al Azar de Spinetta y los Socios del Desierto
A

04.25


Nuestro servidor se demoró 0.02 segundos en generar esta página. Eso fue realmente muy rápido!