Cheques

Spinetta y los Socios del Desierto

Acordes

Spinetta y los Socios del Desierto (1997)
Subida por Jessi


Más Versiones
Ver. 2 Ver. 3 Ver. 4 Ver. 5 Ver. 6

Cambiar Cifrado
Americano Latino

Cambiar Tonalidad
-1 +1

Partir Pantalla Imprimir FAQ

+A
-A


Ver solo la LETRA
e|------------------------------------------|
B|------------------------------------------|
G|------------------------------------------|
D|---------------------------------2--1-----|
A|----------------------0----0--2--------2--|
E|--0--0----0--4--2--0----------------------|

e|------------------------------------------------|
B|------------------------------------------------|
G|------------------------------------------------|
D|---------------------------------------2--1-----|
A|----------------------0----0--2--0--2--------2--|
E|--0--0----0--4--2--0----------------------------|

e|------------------------------------------|
B|------------------------------------------|
G|------------------------------------------|
D|---------------------------------2--1-----|
A|----------------------0----0--2--------2--|
E|--0--0----0--4--2--0----------------------|

e|------------------------------------|
B|------------------------------------|
G|--------------------------2---------|
D|--------------------------2---------|
A|--------------------------0---------|
E|--0--0----0--4--2--0----------------|

E7 A7
Casualmente yo te conocí
E7 A7
una noche como hoy
E7 A7
tu vestido electrico me hirió
E7
vos bailabas y decias:
E7/9
shake it, shake it, shake it, shake it, shake it baby.

Luego te mudaste con tu séquito
a mi lujosa mensión
hasta casi entro en tu narcogate
vos bailabas y decias
shake it, shake it, shake it, shake it, shake it baby.

De nuestro amor tan solo me queda hoy
un absurdo secador
me fundiste hasta el B.M.W.
y yo lo que hago es garpar cheques
cheques, cheques, cheques, cheques.

E7 A7 E7/9
e|--X--|--5--|--3--|
B|--5--|--8--|--3--|
G|--7--|--6--|--1--|
D|--6--|--5--|--0--|
A|--7--|--7--|--2--|
E|--X--|--5--|--0--|


NUEVO FORO DE MÚSICA

¿Tienes alguna duda, consulta, pregunta, consejo o algo para compartir sobre esta canción?

¡Puedes abrir un hilo en el FORO para que la comunidad te ayude! Hacer una pregunta

ACORDES PARA GUITARRA

PIANO UKELELE
E7
A7
E9



E7
A7
E9