Bosnia

Spinetta y los Socios del Desierto

Acordes

Spinetta y los Socios del Desierto (1997)
Subida por sportuondo


Más Versiones
Ver. 2 Ver. 3 Ver. 4 Ver. 5

Cambiar Cifrado
Americano Latino

Cambiar Tonalidad
-1 +1

Partir Pantalla Imprimir FAQ

+A
-A


Ver solo la LETRA
 Riff 1
e|----------------|----------------||
B|--------4-------|-------4--------||
G|------3---3---3-|-----3---3---3--||
D|----6-------6---|---6-------6----||
A|----------------|----------------||
E|--4-------------|-4--------------||

Riff 2
e|----------------------||
B|----------------------||
G|-1--1/3--3/4--4/6-7---||
D|----------------------||
A|-2--2/4--4/5--5/6-8---||
E|----------------------||

Riff 1
Vamos, abre los ojos
abre las manos ante Bosnia
algo se está cayendo
es ese cielo sobre Bosnia
Fm7 Emaj7 G#5 Bb5 G#5
donde un ángel cierra sus alas y llora
Fm7 Emaj7 Riff 2
donde un ángel cierra sus alas, oh...

Vamos, oye los muros
niños que gritan por doquier en Bosnia
ellos caen como violines
en la rapsodia típica de Bosnia
donde un ángel cierra sus alas y llora
donde el hombre baja sus brazos... oh...

Vamos abre tu boca
deja que entre todo Bosnia
pronto viene un mareo
una visita guiada sobre Bosnia
donde un ángel cierra sus alas y llora
donde el hombre baja sus brazos... oh!

x o x xxx xxx
1o||o|| 1|||o|| |||||| ||||||
|||||| |oo||| |||||| ||||||
|oo||| |||||| |||||| ||||||
||||o| ||||o| 4o||||| ||||||
|||||| |||||| |||||| ||||||
|||||| |||||| |oo||| 6o|||||
|||||| |||||| |||||| ||||||
|||||| |||||| |||||| |oo|||
|||||| |||||| |||||| ||||||
Fm7 Emaj7 G#5 Bb5


NUEVO FORO DE MÚSICA

¿Tienes alguna duda, consulta, pregunta, consejo o algo para compartir sobre esta canción?

¡Puedes abrir un hilo en el FORO para que la comunidad te ayude! Hacer una pregunta

ACORDES PARA GUITARRA

PIANO UKELELE
Fm7
Emaj7
G#5
Bb5



Fm7
Emaj7
G#5
Bb5