Las olas

Spinetta y los Socios del Desierto

Acordes

Spinetta y los Socios del Desierto (1997)
Subida por cachalfa


Más Versiones
Ver. 2 Ver. 3 Ver. 4

Cambiar Cifrado
Americano Latino

Cambiar Tonalidad
-1 +1

Partir Pantalla Imprimir FAQ

+A
-A


Ver solo la LETRA
Las Olas


INTRO A:

E /-----------------------------------------------------------------------------------------
B /-----------------------------------------------------------------------------------------
G /-----------------------------------------------------------------------------------------
D /-------4^ ^ ^ ^ ^ 4----4^ ^ ^ ^ ^ ---4^ ^ ^ ^ ^---- 4^ ^ ^ ^ ^--------4^ ^ ^ ^ ^ -
A /-----------------------------------------------------------------------------------------
E /-----------------------------------------------------------------------------------------

INTRO B:

E /-- -------------------------------------------------------------------------------------/12-
B /------------------7-------------------------------------------7----------12-----10-------
G /-----------6--7----------------------------------------6--7-----------------11-----------
D /----7 / 9----------------7-7h5--7-^-^------7 / 9--------------------------------------
A /--------------------------------------------------------------------------------------------
E /--------------------------------------------------------------------------------------------

E /----------------------------------------------------12-------------------------------------------
B /------------------7----12---10-----------------------15(17)-----------------7---12-----10^^^------
G /-----------6--7-------------------12--11---9^-^----------------------6--7-----------11------------
D /----7 / 9------------------------------------------------------7 / 9------------------------------
A /--------------------------------------------------------------------------------------------------
E /--------------------------------------------------------------------------------------------------


( toda la estrofa tiene los mismos acordes)

Bm7 A5 Bm7 A5
Vive pendiente de la luna el reloj, actores que conservan su suerte
Pide de más, de más te llenaras y luego cuesta mas la escalera.

ESTRIBILLO
Gmaj7 F#m11
E /--------------------------------------------2------------------------------0-----------------------
B /--------------------------------3---------- 0-------------------------------0-----------------------
G /--------------------------------4----------4--------------------------------2------------2 /-4 /-2-
D /--------------------------------4---------5---------------------------------2------------2 /-4 /-2-
A /-----------------------------------------------------------------------------------------------------
E /---------------------------------3------------------------------------------2----------------------
Te perderás las olas....................... que se agitan gigantes

Em7 Gmaj7/5dimm F#7/5 F#7
E /-----------0---------------------2---2---------------------------------------------------------
B /----------3-----------------------2---2------------------------------3----------2---------------
G /--------0-------------------------4---4------------------------------3----------3--------------
D /-------2--------------------------5---5------------------------------2----------2---------------
A /------2-------------------------------------------------------------------------------------------
E /----0-----------------------------3---3------------------------------2----------2---------------
Te perderás el día a juzgar por tus ojos... (madonna santa)




INTRO B

( estrofa y estribillo siguientes igual que los anteriores)

oh, jamás hubo sangre en la canción, el ciego en tu película todo lo ve
la llave era inerte, debes aprender, la turba no perdonará ese cielo...

Te perderás las olas...
Que se agitan gigantes
Te perderás el día,
A juzgar por tus ojos... oh ,sí Va!

RIFF ( G5 - A5)

E /--------------------------------------------------------------------------
B /--8-8 / 10--10---------8-8 /10--10-------8-8 / 10--10------10b(11) /8-10--]BIS
G /--7-7 / 9----9--------7-7 /9----9------ -7-7 / 9---9-----------------]
D /----------------------------------------------------------------------------
A /----------------------------------------------------------------------------
E /----------------------------------------------------------------------------

( el sólo esta aproximado...)
E /----------------------------------------------------------------------
B /-----10b(12)-----------------------------------------------------------]
G /-----------------9-^^^--9h7--9-9-9h7-----------------------------------]
D /----------------------------------------------9-/-7--------------------] 4 BIS
A /----------------------------------------------------7--7---------------]
E /-----------------------------------------------------------------------

(Después de repetir el sólo vuelve al RIFF para luego volver al INTRO B)

(última estrofa y estribillo)

Oh, alguien toma un lápiz, y nada escribirá, las formas de las nubes se olvidarán.
La llave era inerte, debes aprender, la turba no perdonará ese cielo...

Te perderás las olas....
Que se agitan gigantes,
Te perderás el día,
Te perderas el Giorno.... ohhhh

( ALGUIEN SABE QUE GRITA SPINETTA ACÁ?????)

(la canción finaliza con el RIFF y el sólo, luego hace una pausa y comienza una
bajada de acordes con wawa hasta el FADE OUT)

bueno creo que esta bien, a pesar de no estar perfecta, creo que esta
bastante entendible, cualquier cosa, escríbanme....
chauchas

José.


NUEVO FORO DE MÚSICA

¿Tienes alguna duda, consulta, pregunta, consejo o algo para compartir sobre esta canción?

¡Puedes abrir un hilo en el FORO para que la comunidad te ayude! Hacer una pregunta

ACORDES PARA GUITARRA

PIANO UKELELE
A
E
B
G
D
Bm7
A5
Gmaj7
F#m11
Em7
F#7
G5



A
E
B
G
D
Bm7
A5
Gmaj7
F#m11
Em7
F#7
G5