Beautiful
Creed
Acordes

Subida por dcgu444
Álbum: Human Clay ( 1999)


Más Versiones
Ver. 2 Ver. 3 Ver. 4 Ver. 5 Ver. 6

Cambiar Cifrado
Americano Latino

Cambiar Tonalidad
-1 +1

Partir Pantalla Imprimir FAQ

+A
-A


Ver solo la LETRA
        TUNING: drop d (D,A,D,G,B,E)


VERSE 1 AND 2:

E|----------------------------------------------------------|
B|----------------------------------------------------------|
G|----------------------------------------------------------|
D|----------------------------------------------------------|
A|----8-----8h10-----7-----8p5------8-----8h10-----7-----8--|
D|--0---0-0------0-0---0-0------0-0---0-0------0-0---0-0----|

E|------------------------------------------------------|----------|
B|------------------------------------------------------|----------|
G|------------------------------------------------------|----------|
D|------------------------------------------------------|--00------|
A|------8-----8h10-----7-----8p5------8-----8h10-----7--|--00--8b--|
D|--0-0---0-0------0-0---0-0------0-0---0-0------0-0----|--00------|
pm
CHORUS:

E|------------------------------------------------|
B|------------------------------------------------|
G|------------------------------------------------|
D|--1--1-1-1--1-1-1-------------------------------|
A|--1--1-1-1--1-1-1-----8-----8h10-----7-----8p5--|
D|--1--1-1-1--1-1-1-0-0---0-0------0-0---0-0------|

INTERLUDE:

E|---------|
B|---------|
G|---------|
D|--1-0-1--|
A|--1-0-1--|
D|--1-0-1--|

1ST BRIDGE:

E|-----------------------------------------------------------|
B|-----------------------------------------------------------|
G|-----------------------------------------------------------|
D|--1--1-1-1--1-1-1--0-0--0-0--0-0--0-0--0-0--0-0--0-0--0-0--|
A|--1--1-1-1--1-1-1--0-0--0-0--0-0--0-0--0-0--0-0--0-0--0-0--|
D|--1--1-1-1--1-1-1--0-0--0-0--0-0--0-0--0-0--0-0--0-0--0-0--|
pm....................................

E|----------------------------------------|
B|----------------------------------------|
G|---------7b--------7b--------7b------7--|
D|---------0---------0---------0-------0--|
A|--0-0--0----0-0--0----0-0--0----0-0-----|
D|--0-0--0----0-0--0----0-0--0----0-0-----|
pm.... ...... ...... ...

VERSE 3:

Play 6 times

E|----------------------------------------------------------|
B|----------------------------------------------------------|
G|----------------------------------------------------------|
D|----------------------------------------------------------|
A|----8-----8h10-----7-----8p5------8-----8h10-----7-----8--|
D|--0---0-0------0-0---0-0------0-0---0-0------0-0---0-0----|

Play once

E|------------------------------------------------------|----------|
B|------------------------------------------------------|----------|
G|------------------------------------------------------|----------|
D|------------------------------------------------------|--00------|
A|------8-----8h10-----7-----8p5------8-----8h10-----7--|--00--8b--|
D|--0-0---0-0------0-0---0-0------0-0---0-0------0-0----|--00------|
pm
BRIDGE 2:

E|--------10-------10-----10--|
B|----------------------------|
G|--------7b-------7b-----7b--|
D|--------0--------0------0---|
A|--0-0-0----0-0-0----0-0-----|
D|--0-0-0----0-0-0----0-0-----|
pm... ..... ...

E|------------------------|
B|------------------------|
G|--------7--------7------|
D|--------0--------0------|
A|--0-0-0----0-0-0---0-0--|
D|--0-0-0----0-0-0---0-0--|

E|--10-10-10-10-10-10-10-10-10-10-10-10--|
B|---------------------------------------|
G|---7--7--7--7--7--7--7--7--7--7--7--7--|
D|---------------------------------------|
A|---------------------------------------|
D|---------------------------------------|

SOLO:

E|--------------------------------------/14--|
B|----------------------8-7--10--8-7h8p7-----|
G|------------7-----7-9----------------------|
D|--7--9--7-9---9----------------------------|
A|--0--0-------------------------------------|
D|-------------------------------------------|

BRIDGE 3:

E|----------------------------------------------------------------------|
B|----------------------------------------------------------------------|
G|----------------------------------------------------------------------|
D|--7--7-7-9-9--9p7-4-4-5-5p4--4-4--4-4-4-4b-4-5-4-4-4--4-4-4-4b-4-5p4--|
A|----------------------------------------------------------------------|
D|----------------------------------------------------------------------|

ACORDES PARA GUITARRA

PIANO UKELELE


COMENTARIOS

Aún no hay comentarios,

¡escribe el primero!

Escribe una pregunta, duda o comentario sobre esta canción, te responderemos a la brevedad.

Las más tocadas de Creed

Toca una Canción al Azar de Creed