What's This Life For
Creed
Acordes

Subida por Irjaa
Álbum: My Own Prison ( 1997)


Más Versiones
Ver. 2 Ver. 3 Ver. 4

Cambiar Cifrado
Americano Latino

Cambiar Tonalidad
-1 +1

Partir Pantalla Imprimir FAQ

+A
-A
1ra vez  apenas
E|--3----3--|--0-------2-2h3p2---------------2--2-------3-------
B|--3----3--|--------3---------3-------------2--2---------3-----
G|--0----0--|------2-------------0--------4--4--4-----5-----5---
D|--0----0--|----0----------------------4----4--4---5---------0-
A|--2----2--|------------------------2------------3-------------
E|--3-------|---------------------------------------------------

Verso
E|--------3---0-------2-2h3p2---------------2---2-------3-------
B|--------3---------3---------3----------4--2---2---------3-----
G|--------0-------2-------------0------4----4---4-----5-----5---
D|------0-------0-------------------2-------4---4---5---------0-
A|----2-------------------------------------------3-------------
E|--3-----------------------------------------------------------

Refrão
E|--------------------------
B|--------------------------
G|--4-----5-----4-----5-----
D|--5-----5-----4-----5-----
A|--5-----7-----2-----3-----
E|--3-----x-----x-----x-----

Verso Final
E|-3---3-3--3--3--3-3-3-3--3-3-3---3--3-3--3--3--3-3-3-3-3-3-3-
B|-3---3-3--3--3--3-3-3-3--3-3-3---3--3-3--3--3--3-3-3-3-3-3-3-
G|-0---0-0--0--0--0-0-0-0--0-0-0---0--0-0--0--0--0-0-0-0-0-0-0-
D|-0---0-0--0--0--0-0-0-0--0-0-0---0--0-0--0--0--0-0-0-0-0-0-0-
A|-2---2-2--2--2--2-2-2-2--2-2-2---2--2-2--2--2--2-2-2-2-2-2-2-
E|-3---3-3--3--3--3-3-3-3--3-3-3---3--3-3--3--3--3-3-3-3-3-3-3-

E|-0--0-0-0-0--0--0-0-0-0-0-0-0-0-0-0-0-0-0--0-0-0-0--2--2-2-
B|-1--1-1-1-1--0--0-0-0-1p0-0-0h1-1-1-0-0-0--1-0-0-0--3--3-3-
G|-0--0-0-0-2--0--0-0-0-2-2-2-2-2-2-2-2-2-2--2-2-2-2--2--2-2-
D|-2--2-2-2-2--2--2-2-2-2-2-2-2-2-2-2-2-2-2--2-2-2-2--0--0-0-
A|-3--3-3-3-3--3--3-3-3-3-3-3-0-0-0-0-0-0-0--0-0-0-0---------
E|-----------------------------------------------------------

E|-2-3--3-3-3p2-2--0--0-0-0-0-0-0-0-0-0-0-0--3--3-3-3--3--3-3-
B|-3-3--3-3-3-3-3--1--1-1-1-0-0-0-0-0h1-1-1--3--3-3-3--3--3-3-
G|-2-2--2-2-2-2-2--0--0-0-0-0-0-0-0-0-0-0-0--0--0-0-0--0--0-0-
D|-0-0--0-0-0-0-0--2--2-2-2-2-2-2-2-2-2-2-2--0--0-0-0--0--0-0-
A|-----------------3--3-3-3-3-3-3-3-3-3-3-3--2--2-2-2--2--2-2-
E|-------------------------------------------3--3-3-3--3--3-3-

E|-3--3-3--3-3--3-3-3-3--3-3-3-- B-3--3-3--3-3--3-3-3-3--3-3-3--
G|-0--0-0--0-0--0-0-0-0--0-0-0-- D-0--0-0--0-0--0-0-0-0--0-0-0--
A|-2--2-2--2-2--2-2-2-2--2-2-2-- D-3--3-3--3-3--3-3-3-3--3-3-3--

KEY: h = hammer P = pull off X = muffle string(s)

ACORDES PARA GUITARRA

PIANO UKELELE


COMENTARIOS

Aún no hay comentarios,

¡escribe el primero!

Escribe una pregunta, duda o comentario sobre esta canción, te responderemos a la brevedad.

Las más tocadas de Creed

Toca una Canción al Azar de Creed