Compartir


Imprimir FAQ
+A
-A

Texto

Desplazamiento

Transportador

Color de Fondo

Archivos

-A
+A
 INTRO: no começo tem q soar abafado;           E5 B5
E|---------------------------------------------x--x-----|
B|---------------------------------------------x--x-----|
G|---------------------------------------------9--x-----|
D|---------------------11-11--9--11----13-----9--9-----|
A|---7x7x7x6x6x6/7-----x--x---x--x-------------7--9-----|
E|---9x9x9x9x9x9---5---x--x---x--x-------------x--7-----|

A maior parte da musica fica assim; repetindo
E comtinua no verse até o refrão

VERSE;

C#m / A / E / B ]

Affirmative may be justified
Take from one give to another
The goal is to be unified
Take my hand be my brother
The payment silenced the masses
Sanctified by, by oppression
Unity took a backseat
Sliding further in to regression

One (oh one)
The only way is one (2x)

REFRÃO

B5 / F#5 / C#5 / G#5 ]

I feel angry i feel helpless
Want to change the world (yeah)
I feel violent i feel alone
Don't try to change my mind (no)

verse de novo o mesmo da introdução

Society blind by color
Why hold down one to raise another
Discrimination now on both sides
Seeds of hate blossom further
The world is heading for mutiny
When all we want is unity
We may rise and fall, but in the end
We meet our fate together

REFRÃO

B5 / F#5 / C#5 / G#5 ]

I feel angry i feel helpless
Want to change the world, yeah  (2x)
I feel violent i feel alone
Don't try to change my mind

Clean: uma parte depois do refão, com um leve frange q vai mudando;
         B              F#             C#m               G#
E|---------------------------------------------------------------------|
B|---------3------------2--------------------5-------------------------|
G|-----------3-------------3---------------6---------------------------|
D|-------3-------------------3-----------6-------------------6-----5-----|
A|------2------------3-----------------4-------------------6-----6-------|
E|-----------------2-------------------------------------4-----4---------|

REFRÃO

B5 / F#5 / C#5 / G#5 ]

I feel angry i feel helpless
Want to change the world, yeah  (2x)
I feel violent i feel alone
Don't try to change my mind

HERRAMIENTAS ACORDESWEB:


LETRA DE LA CANCIÓN:

Ver la letra sola (sin acordes)

OTRAS VERSIONES DE LA MISMA CANCIÓN:

Ver. 2 Ver. 3 Ver. 4 Ver. 5 Ver. 6

DESCARGAR PDF / IMPRIMIR CANCIÓN



ACORDES PARA GUITARRA

PIANO UKELELE
E5
C#m
A
E
B
B5
F#5
C#5
G#5
F#
G#


TOP 20: Las más tocadas de Creed


Toca una Canción al Azar de Creed

Acordes

Cerrar
E5
C#m
A
E
B
B5
F#5
C#5
G#5
F#
G#

08.31


120