Wrong Way
Creed
Acordes

Subida por wilson02
Álbum: Human Clay ( 1999)



Cambiar Cifrado
Americano Latino

Cambiar Tonalidad
-1 +1

Partir Pantalla Imprimir FAQ

+A
-A


Ver solo la LETRA
        TUNING: drop d (D,A,D,G,B,E)


INTRO/VERSE:

Play 8 times

E|------------------------------------------------------------|
B|------------------------------------------------------------|
G|------------------------------------------------------------|
D|----------0-0---------0-0---------0-0----------0-0---0---0--|
A|------6-6---------3-5---------8-8----------3-5--------------|
D|--0-0---------0-0---------0-0----------0-0---------3---1----|

Play 1 time

E|-----------------------------------------------|
B|-----------------------------------------------|
G|-----------------------------------------------|
D|----------0-0---------0-0----------------------|
A|------6-6---------3-5---------8-8-8-8-7-7-7-7--|
D|--0-0---------0-0---------0-0------------------|

E|---------------------------------|
B|---------------------------------|
G|--5--5--5--5-5-5-4--4--4--4-4-4--|
D|--3--3--3--3-3-3-2--2--2--2-2-2--|
A|--3--3--3--3-3-3-2--2--2--2-2-2--|
D|--3--3--3--3-3-3-2--2--2--2-2-2--|

INTERLUDE:

E|-----------------------------------------------------------|
B|-----------------------------------------------------------|
G|-----------------------------------------------------------|
D|----------0-0---------0-0---------0-0---------0-0---0---0--|
A|------6-6---------3-5---------8-8---------3-5--------------|
D|--0-0---------0-0---------0-0---------0-0---------3---1----|

E|---------------------------------------|
B|---------------------------------------|
G|--5--5--5--5-5-5-4--4--4--4-4-4-4-4-4--|
D|--3--3--3--3-3-3-2--2--2--2-2-2-2-2-2--|
A|--3--3--3--3-3-3-2--2--2--2-2-2-2-2-2--|
D|--3--3--3--3-3-3-2--2--2--2-2-2-2-2-2--|

1ST CHORUS: (gtr 1)

E|----------------------------------------------------------------|
B|--3--3------------8--8--8-8-8--87--6--6--6--6-6-6-5--5--5-5-5--|
G|--2--2-5--5-5-5-5-7--7--7-7-7--76--5--5--5--5-5-5-4--4--4-4-4--|
D|--0--0-5--5-5-5-5-5--5--5-5-5--54--3--3--3--3-3-3-2--2--2-2-2--|
A|--0--0-3--3-3-3-3-5--5--5-5-5--54--3--3--3--3-3-3-2--2--2-2-2--|
D|--0--0------------5--5--5-5-5--54--3--3--3--3-3-3-2--2--2-2-2--|

E|------------------------------------|
B|--3--3------------8--8--8-8-8--87--|
G|--2--2-5--5-5-5-5-7--7--7-7-7--76--|
D|--0--0-5--5-5-5-5-5--5--5-5-5--54--|
A|--0--0-3--3-3-3-3-5--5--5-5-5--54--|
D|--0--0------------5--5--5-5-5--54--|

1ST CHORUS: (gtr 2)

E|----------------------------|
B|----------------------------|
G|--14~----12~----12h14--10~--|
D|----------------------------|
A|----------------------------|
D|----------------------------|

1ST BRIDGE:

Play 2 times

E|-------------------------------------------------------------------|
B|-------------------------------------------------------------------|
G|-------------------------------------------------------------------|
D|-------------------------------------------------------------------|
A|--------5-5-5-------4-4-4-5-5-4-4----------------------------------|
D|--0-0-0-------0-0-0---------------0-0-0-8-8-8-0-0-0-7-7-7-8-7-7-5--|
pm.............................................................

E|-------------------------------------------------------------|
B|-------------------------------------------------------------|
G|-------------------------------------------------------------|
D|-------------------------------------------------------------|
A|--------5-5-5-------4-4-4-5-5-4-4----------------------------|
D|--0-0-0-------0-0-0---------------0-0-0-8-8-8-0-0-0-7-8-7-5--|
pm................................... .....

Play 1 time

E|-------------------------------------------------------------------|
B|-------------------------------------------------------------------|
G|-------------------------------------------------------------------|
D|-------------------------------------------------------------------|
A|--------5-5-5-------4-4-4-5-5-4-4----------------------------------|
D|--0-0-0-------0-0-0---------------0-0-0-8-8-8-0-0-0-7-7-7-8-7-7-5--|
pm.............................................................

E|---------------------------------------------------|
B|---------------------------------------------------|
G|---------------------------------------------------|
D|---------------------------------------------------|
A|--------5-5-5-------4-4-4-5-5-4-4-0-0-0-8-8-8-0-0--|
D|--0-0-0-------0-0-0---------------0-0-0-8-8-8-0-0--|
pm... .....

2ND BRIDGE:

Play this 3 times

E|--------6----------------------------0------|
B|----------6------------------------3---3----|
G|------8-----8------5------3------2-------2--|
D|----8---------8------5------1--0------------|
A|--6--------------3--------------------------|
D|------------------------1-------------------|

Play this 1 time

E|--------6------------------|
B|----------6----------------|
G|------8-----8------5-------|
D|----8---------8------5-----|
A|--6--------------3---------|
D|------------------------0--|

3RD BRIDGE:

E|-------------------------------------------------------------------------------|
B|--3-------------------3-------------------3-----------------3------------------|
G|--2-----5--7---7/87--2-----5--7---7/87--2-----5--7---7/8--2-----5--7---------|
D|--0--1--5--7---7/87--0--1--5--7---7/87--0--1--5--7---7/8--0--1--5--7--5-4-3--|
A|--0--1--3--5----------0--1--3--5----------0--1--3--5--------0--1--3--5--5-4-3--|
D|--0--1----------------0--1----------------0--1--------------0--1--3--0--5-4-3--|
pm...
2ND CHORUS: (gtr 1)

E|------------------------------------------------|
B|--8--8--8-8-8--87--6--6--6--6-6-6-5--5--5-5-5--|
G|--7--7--7-7-7--76--5--5--5--5-5-5-4--4--4-4-4--|
D|--5--5--5-5-5--54--3--3--3--3-3-3-2--2--2-2-2--|
A|--5--5--5-5-5--54--3--3--3--3-3-3-2--2--2-2-2--|
D|--5--5--5-5-5--54--3--3--3--3-3-3-2--2--2-2-2--|

E|----------------------------------------------------------------|
B|--3--3------------8--8--8-8-8--87--6--6--6--6-6-6-5--5--5-5-5--|
G|--2--2-5--5-5-5-5-7--7--7-7-7--76--5--5--5--5-5-5-4--4--4-4-4--|
D|--0--0-5--5-5-5-5-5--5--5-5-5--54--3--3--3--3-3-3-2--2--2-2-2--|
A|--0--0-3--3-3-3-3-5--5--5-5-5--54--3--3--3--3-3-3-2--2--2-2-2--|
D|--0--0------------5--5--5-5-5--54--3--3--3--3-3-3-2--2--2-2-2--|

E|--------------------------------------------|
B|--3--3------------8--8--8-8-8--87--6----5--|
G|--2--2-5--5-5-5-5-7--7--7-7-7--76--5----4--|
D|--0--0-5--5-5-5-5-5--5--5-5-5--54--3----2--|
A|--0--0-3--3-3-3-3-5--5--5-5-5--54--3----2--|
D|--0--0------------5--5--5-5-5--54--3----2--|

CHORUS 2: (gtr 2)

E|----------------------------|
B|----------------------------|
G|--14~----12~----12h14--10~--|
D|----------------------------|
A|----------------------------|
D|----------------------------|

ACORDES PARA GUITARRA

PIANO UKELELE


COMENTARIOS

Aún no hay comentarios,

¡escribe el primero!

Escribe una pregunta, duda o comentario sobre esta canción, te responderemos a la brevedad.

Las más tocadas de Creed

Toca una Canción al Azar de Creed