Stand Here With Me
Creed
Acordes

Subida por Dovi
Álbum: Weathered ( 2001)


Más Versiones
Ver. 2

Cambiar Cifrado
Americano Latino

Cambiar Tonalidad
-1 +1

Partir Pantalla Imprimir FAQ

+A
-A


Ver solo la LETRA
Tuning: Drop D (D A D G B E low to high)
Tuning: Dropped D
Transcribed by: Leandro Langeani


Tab Key:
h - hammer on
p - pull off
/ - slide up
- slide down
b(x) - bend ate a casa x
rb - descer o bend segurando o som ate a nota original
~ - vibratto
pm - palm mute ou abafamento de cordas
* - harmonica artificial (qdo dentro da tab)
* - ponto de atençao (qdo em cima da tab)


A intencao dessa tab eh demonstrar oq esta sendo tocado, e nao como.
Para entender como serao tocados os riffs e acordes, escute a musica
com atencao e aprenda os tempos!


Intro - Limpo * o slide vem ate essa nota,
mas ela eh palhetada qdo atingir a nota

|---------------------------------------------
|---2h3--2h3--3h5p3p2h3/-7---3-----7/8/7----3-
|----------------------------0-----7--------2-
|----------------------------0--5--5----------
|-0----0----0-------------------5-------------
|-------------------------------5-------------

---------------------------------------------------------|
-------------------------------3-------------------------|
----------------------6h7~-----2------------------6h7/9~-|
-------------0----7h9--------------------0---7h9---------|
--0----0-4h5---------------------0--0-4h5----------------|
--0------------------------------0-----------------------|



Versos

|-------------------------------------------------------------
|-------------------------------------------------------------
|----6h7-6h7--7h9p7p6--7/11~-------7--11--12b(14)rb--12p11----
|-----------------------------5---------------------------12~-
|-0---------------------------5-------------------------------
|-----------------------------5-------------------------------

-----------------------------------------------------------------|
----------------------------------3------------------------------|
----------------------6-7b(9)br---2-----------------------6h7-9~-|
--------------0----7h9---------------------------0---7h9---------|
-0-----0-4h5------------------------0--0--0-4h5------------------|
-0----------------------------------0----------------------------|

|----------------------------------------------------
|-------------------------------------7/8/7-------3--
|----6h7-6h7--7h9p7p6--7/11~-------7--7-----------2--
|-----------------------------5----5-----------------
|-0---------------------------5----5-----------------
|-----------------------------5----5-----------------

-----------------------------------------------------------------|
-------------------------------3---------------------------------|
-----------------------6h7~----2-------------------------6h7-9~--|
--------------0----7h9------------------------0----7h9-----------|
-0-----0-4h5--------------------0---0--0-4h5---------------------|
-0------------------------------0--------------------------------|

Nesse 2a variacao, algumas vezes ele faz o bend na ultima parte do riff...
escute a musica pra entender --> * 6 7b(9)rb




Refrao

stand* here with me NOW!! *
------------------------------------------------------------|
------------------------------------------------------------|
------------5------------3----------------------------------|
--0---------5----5-5-----3-0-0--3---3h5-555---0--4h5-555-4--|
--0---------3----5-5-----1-0-0--3---3h5-555---0--4h5-555-4--|
--0--------------5-5-------0-0--3---3h5-555---0-------------|
pm ... ... ...

-------------------------------------------------------------------------|
-------------------------------------------------------------------------|
------------5------------3-----------------------------------------------|
--0---------5----5-5-----3-0-0--3-3h5-555---0--4h5-555-------------------|
--0---------3----5-5-----1-0-0--3-3h5-555---0--4h5-555----0--3b(3 1/4)---|
--0--------------5-5-------0-0--3-3h5-555---0----------------------------|
pm ... ... ...



Solo!!


|---------------------------------------------
|---------------------------------------------
|---------------------------------------------
|--12----14b(15)--12~~---14-14h15--12~~---12--
|--12-------------------------------------12--
|--12-------------------------------------12--

----------------------------------------------------------------|
----------------------------------------------------------------|
----------------------------------------------------------------|
-12--14-12h14p12------12----------------------------------------|
------------------15------1210~----9---10p9---10p9--10p9--------|
------------------------------------------------------------12--|


|--14b(15)~~---15b(17)---13~~--13-------12---------------------------
|----------------------------------15--------13---15--15~--15b(17)rb-
|--------------------------------------------------------------------
|--------------------------------------------------------------------
|--------------------------------------------------------------------
|--------------------------------------------------------------------

-----------------------------------------------------|
-----------------------------------------------------|
-----------12----------------------------------------|
----14-15-----15-14h15p14--12h14p12-14----*12~-------|
---------------------------------------15------------|
-----------------------------------------------------|

|------------------------------------------------
|------------------------------------------------
|------------------------------------------------
|------12--15--12------12~-------/------0--------
|--15--------------15------------/------0--------
|--------------------------------/------0--------

----14-12-14-------14-12-14-15--14-12-14-15-14-12-14-------|
-------------15~~------------------------------------15~~--|
-----------------------------------------------------------|
-----------------------------------------------------------|
-----------------------------------------------------------|
-----------------------------------------------------------|

suba e desca o braco repete umas 2 ou 3 vezes ate chegar em:

-14-12-14-15--14-12-14-15-14----------------------|
-----------------------------15-------------------|
--------------------------------------------------|
--------------------------------------------------|
--------------------------------------------------|
--------------------------------------------------|

-14-17p14-----14--17p14-----14--17p14------14-17p14-----14--19p14----14-15-17p14----|
----------15------------15-------------15-----------15------------15-------------15-|
------------------------------------------------------------------------------------|
------------------------------------------------------------------------------------|
------------------------------------------------------------------------------------|
------------------------------------------------------------------------------------|

14--19p14----14-15-17p14----14----17b(19)-17b(19)--17b(19)---17~~-------|
----------15-------------15---------------------------------------------|
------------------------------------------------------------------------|
------------------------------------------------------------------------|
------------------------------------------------------------------------|
------------------------------------------------------------------------|



no final eh soh repetir os riffs ja anteriormente escritos ate o fim...
(escute a musica pra entender a ordem)

Coz u stand here with me!!!





LETRA E TRADUÇÃO

STAND HERE WITH ME

You always reached out to me and helped me believe
All those memories we shared
I will cherish every one of them
The truth of it is there`s a right way to live
And you showed me
So now you live on in the words of a song
You´re a melody

You stand here with me now

Just when fear blinded me you taught me to dream
I´ll give you everything I am and still fall short of
What you´ve done for me
In this life that we live
I hope I can give love unselfishly
I´ve learned the world is bigger than me
You´re my daily dose of reality

You stand here with me now

On and on we sing
On and on we sing this song

´Cause you stand here with me now

ACORDES PARA GUITARRA

PIANO UKELELE


COMENTARIOS

Aún no hay comentarios,

¡escribe el primero!

Escribe una pregunta, duda o comentario sobre esta canción, te responderemos a la brevedad.

Las más tocadas de Creed

Toca una Canción al Azar de Creed