as MY SACRIFICE | Creed | Acordes

My Sacrifice

Creed

Acordes

Weathered (2001)
Subida por Lulisanchez11


Más Versiones
Ver. 2 Ver. 3 Ver. 4 Ver. 5 Ver. 6

Cambiar Cifrado
Americano Latino

Cambiar Tonalidad
-1 +1

Partir Pantalla Imprimir FAQ

+A
-A


Ver solo la LETRA
Afinação: D A D G A D

[Introdução] Bm7(9) G5(9) D5 Bm7(9) G5(9)
D5 Bm7(9) G5(9)

[Primeira Parte]
D5
Hello my friend we meet again

It's been a while where should
Bm7(9) G5(9)
we begin Feels like forever
D5
Within my heart are memories
Bm7(9)
Of perfect love that you gave to me
G5(9)
I remember

Bm7(9) G5(9)
E|---------0--------------7------7-----------
B|--4--------4----------5---5--5---5---------
G|-------------------0-----------------------
D|-----4-------4-----------------------------
A|-2-----2--------0--------------------------
E|-------------------5-----------------------

D5
E|-0----0----0--0-0--0--0--0---0-------------
B|-0----0----0--0-0--0--0--0---0-------------
G|-76--6/7--7--7-7--6--11-11--11/12---------
D|-------------------------------------------
A|-54--4/5--5--5-5--4--9--9---9-/10-0-------
E|-------------------------------------------

Bm7(9) G5(9)
E|---------0--------------7------7-----------
B|---4-------4----------5---5--5---5---------
G|-----2-------------0-----------------------
D|-------4-----4-----------------------------
A|-2--------------0--------------------------
E|-------------------5-----------------------

D5
E|-0----0----0--0---0----0---0---0--0----0-0-
B|-0----0----0--0---0----0---0---0--0----0-0-
G|-76--6/7--7--7-x-6/7--7-x-7/9-7--76--6/7-
D|-------------------------------------------
A|-54--4/5--5--5-x-4/5--4-x-5/7-5--54--4/5-
E|-0---------0---------------0---0-----------

E|-0--0--------------------------------------
B|-0--0--------------------------------------
G|-7--7-x------------------------------------
D|-------------------------------------------
A|-5--5-x------------------------------------
E|-0-----------------------------------------

Bm7(9)
E|-0----0--x-0--0-0-0-0-------0-0-0-0--------
B|-0----0--x-0--4-4-4----4----4-4-4-4--------
G|-6/7--7--x-6--2-2-2---------2-2-2-2--------
D|--------------4-4-4-------4-4-4-4-4--------
A|-5/5--5--x-4--2-2-2---------2-2-2-2--------
E|-------------------------------------------

G5(9)
E|-7-7-7--7--7-7-7-7--7-7-7-7----------------
B|-5-5-5--5--5-5-5-5--5-5-5-5----------------
G|-0-0-0--0--0-0-0-0--0-0-0-0----------------
D|-0-0-0--0--0-0-0-0--0-0-0-0----------------
A|-------------------------------------------
E|-5-5-5--5--5-5-5-5--5-5-5-5----------------


[Refrão]
D
When you are with me
A11/C# Bm7(9) G5(9)
I'm free ,I'm careless, I believe
D A11/C#
Above all the others we'll fly
Bm7(9) G5(9)
This brings tears to my eyes
D5
My sacrifice

D
E|-0----0--0--0--0--0-----0--0--x-x----------
B|-7/9--9--9--9--9--10h12-10-9--x-x----------
G|-9/11-11-11-11-11-11----11-11-x-x----------
D|-0----0--0--0--0--0-----0--0--x-x----------
A|-------------------------------------------
E|-0----0--0--0-----------0--0--x-x----------

A11/C#
E|-0-0-0---0-0--0----0--0-0-0-0--------------
B|-0-0-0---0-0--0----0--0-0-0-0--------------
G|-6-6-6---6-6--7p6--6--6-6-6-6--------------
D|-7-------7-7-------------------------------
A|-7-------4-4--4----4--4-4-4-4--------------
E|-------------------------------------------

Bm7(9) G5(9)
E|-0--0--0---0-0-------7-x--7-7---7---7-7----
B|-0--0--0---0-0-------0-x--5-5---5---5-5----
G|-6--6--6---6-6---6h7---x--0-0---0---0-0----
D|-7--7--7---7-7---7-----x--0-----0---0-0----
A|-----------------0-----x-------------------
E|-9--9--9---9-9---------x--5---5-5---0-5----

E|-------------------------------------------
B|-------------------------------------------
G|-------------------------------------------
D|-53-0-3-5-3-------------------------------
A|-53-0-3-5-3-------------------------------
E|-53-0-3-5-3-------------------------------


[Segunda Parte]
D5
We've seen our share of ups and downs
Bm7(9)
Oh how quickly life can turn around in
G5(9)
an instant
D5
It feels so good to reunite
Bm7(9)
Within yourself and within your mind
G5(9)
Let's find peace there
D5
I just want to say hello again
D5+ D5(9)
I just want to say hello again

E|-------------------------------------------
B|-------------------------------------------
G|----119--9-9-------97--7-7---------------
D|-------------------------------------------
A|----9-7--7-7-------75--5-5---------------
E|-0-------------0-0------------0-0----------

E|-------------------------------------------
B|-------------------------------------------
G|-76--6-6-------4/6-6/7-76-6/9--97-7-----
D|----------------------------------------0--
A|-54--4-4-------2/4-4/5-54-4/7--75-5--0--
E|-----------0-0--------------------------0--

D5+
E|-----------8-8-8-8-----8-8-8-8-------------
B|-----------5-5-5-5-----5-5-5-5-------------
G|-97-7-----7-7-7-7-----7-7-7-7-------------
D|-------0-0-0-0-0-0-0-0-0-0-0-0-------------
A|-75-5-0-0---------0-0---------------------
E|-------0-0---------0-0---------------------

D5+ D5(9)
E|-x-x-x-x-x-x--8-8-8-8-----8-8-8-8-------0---
B|-x-x-x-x-x-x--5-5-5-5-----5-5-5-5-------0---
G|-x-x-x-x-x-x--7-7-7-7-----7-7-7-7-------2---
D|-x-x-x-x-x-x--0-0-0-0-0-0-0-0-0-0-0-0-0-0---
A|-x-x-x-x-x-x----------0-0---------0-0-0-0---
E|-x-x-x-x-x-x----------0-0---------0-0-0-0---


[Refrão]
D
When you are with me
A11/C# Bm7(9) G5(9)
I'm free ,I'm careless, I believe
D D/C#
Above all the others we'll fly
Bm7(9) G5(9)
This brings tears to my eyes
D5
My sacrifice

D
When you are with me
A11/C# Bm7(9) G5(9)
I'm free ,I'm careless, I believe
D D/C#
Above all the others we'll fly
Bm7(9) G5(9)
This brings tears to my eyes
D5
My sacrifice

[Repetições]
D
E|-0----0--0--0--0--0-----0--0--x-x----------
B|-7/9--9--9--9--9--10h12-10-9--x-x----------
G|-9/11-11-11-11-11-11----11-11-x-x----------
D|-0----0--0--0--0--0-----0--0--x-x----------
A|-------------------------------------------
E|-0----0--0--0-----------0--0--x-x----------

A11/C#
E|-0-0-0---0-0--0----0--0-0-0-0--------------
B|-0-0-0---0-0--0----0--0-0-0-0--------------
G|-6-6-6---6-6--7p6--6--6-6-6-6--------------
D|-7-------7-7-------------------------------
A|-7-------4-4--4----4--4-4-4-4--------------
E|-------------------------------------------

Bm7(9)
E|-0--0--0---0-0--0------0-------------------
B|-0--0--0---0-0-----------------------------
G|-6--6--6---6-6-----6------6----------------
D|-7--7--7---7-7-------7------7--------------
A|-------------------------------------------
E|-9--9--9---9-9-----------------------------

G5(9)
E|-0--0--0---0--0-0---0--0-------------------
B|-0--0--0---0--0-0---0--0-------------------
G|-2--2--2---2--2-2/4-4--4/2-----------------
D|-0--0--0---0--0-0---0--0-------------------
A|-x--x--x---x--x-x---x--x-------------------
E|-5--5--5---5--5-5---5--5-------------------

D
E|-0----0--0--0--0--0-----0--0--0--0---------
B|-7/9--9--9--9--9--10h12-12-12-12-12--------
G|-9/11-11-11-11-11-11----11-11-11-11--------
D|-0----0--0--0--0--0-----0--0--0--0---------
A|-------------------------------------------
E|-------------------------------------------

D/C#
E|-0--0--0--0-----0--0--0--0--0--------------
B|-12-12-12-12----12-12-12-12-12-------------
G|-11-11-11-11----11-11-11-11-11-------------
D|-0--0--0--0-----0--0--0--0--0--------------
A|-------------------------------------------
E|-11-11-11-11----11-11-11-11-11-------------

Bm7(9)
E|-0--0--0---0-0--0------0-------------------
B|-0--0--0---0-0-----------------------------
G|-6--6--6---6-6-----6------6----------------
D|-7--7--7---7-7-------7------7--------------
A|-------------------------------------------
E|-9--9--9---9-9-----------------------------

G5(9)
E|-0--0--0---0--0-0---0--0-------------------
B|-0--0--0---0--0-0---0--0-------------------
G|-2--2--2---2--2-2/4-4--4/2-----------------
D|-0--0--0---0--0-0---0--0-------------------
A|-x--x--x---x--x-x---x--x-------------------
E|-5--5--5---5--5-5---5--5-------------------

NUEVO FORO DE MÚSICA

¿Tienes alguna duda, consulta, pregunta, consejo o algo para compartir sobre esta canción?

¡Puedes abrir un hilo en el FORO para que la comunidad te ayude! Hacer una pregunta

ACORDES PARA GUITARRA

PIANO UKELELE
Bm9
Gadd9
D5
D
D7b13
Dadd9
D/C#


Las más tocadas de Creed

Bm9
Gadd9
D5
D
D7b13
Dadd9
D/C#